Kje imaš kitaro in trzalico? Besedilo in akordi so spodaj :-)

[[ DISCLAIMER ]]

Besedila in akordi na TrzaliciVse verzije te pesmi:    besedilo z akordi Moja Liza     tablatura akordi besedilo   Moja Liza       Moja Liza (gp)

trzalica bar

Zablujena Generacija - Moja Liza (Moja Mala)
============================================
zapisal: terli00 7 2017
============================================

E|-----         E|-----
B|-----         B|-----
E akord lahko igraš  G|--9-- ali pa  G|--1-- , kje bol paše eden, kje pa drugi
D|--9--         D|--2--
A|--7--         A|--2--
E|-----         E|-----

*************************************************************************************************
INTRO:

E|----------------------------------------------
B|----------------------------------------------
G|----------------------------------------------
D|----------------------------------------------
A|----------------------------------------------
E|--7-7-7-7-7-7-7-7-7-7----7-7-7-7-7-7-7-7-7-7--

E|----------------------------------------------------------------
B|----------------------------------------------------------------
G|----------------------------------------------------------------
D|----------------------------------------------------------------
A|----------------------------------------------------------------
E|--7-7-7-7-7-7-7-7-7-74-4-4-4-4-4-4-4-4-4-4/9-9-9-9-9-9-9-9-9-9-                     2x
/
E|---------------------------------------------------------------------------------   /
B|---------------------------------------------------------------------------------  /
G|---------------------------------------------------------------------------------
D|---------------------------------------------------------------------------------
A|-9-9-9-9-9-9-9-9-9-97-7-7-7-7-7-7-7-7-7-----------------------------------------
E|-----------------------------------------4-4-4-4-4-4-4-4-4/9-9-9-9-9-9-9-9-9-9---

E|-------------------------------------------------------------
B|-------------------------------------------------------------
G|-------------------------------------6-6-6-6-6-6-6-6-6-6-6-6-
D|-9-9-9-9-9-9-9-9-9-9-6-6-6-6-6-6-6-6-6-6-6-6-6-6-6-6-6-6-6-6-  2x
A|-9-9-9-9-9-9-9-9-9-9-6-6-6-6-6-6-6-6-4-4-4-4-4-4-4-4-4-4-4-4-
E|-7-7-7-7-7-7-7-7-7-7-4-4-4-4-4-4-4-4-------------------------

VERSE 1:

E|-----------------------------------------------------------------
B|-----------------------------------------------------------------
G|-----------------------------------------------------------------
D|-----------------------------------------------------------------
A|-----------------------------------------------------------------
E|-7-7-7-7-7-7-7-7-7-74-4-4-4-4-4-4-4-4-4-42-2-2-2-2-2-2-2-2-2-5-

E|---------------------------------------------------------------------------------
B|---------------------------------------------------------------------------------
G|---------------------------------------------------------------------------------
D|---------------------------------------------------------------------------------
A|-9-9-9-9-9-9-9-9-9-97-7-7-7-7-7-7-7-7-7-----------------------------------------
E|-----------------------------------------4-4-4-4-4-4-4-4-42-2-2-2-2-2-2-2-2-2---

E|-------------------------------------------------------------
B|-------------------------------------------------------------
G|-------------------------------------------------------------
D|-9-9-9-9-9-9-9-9-9-9-6-6-6-6-6-6-6-6-4-4-4-4-4-4-4-4-4-4-4-4-  2x
A|-9-9-9-9-9-9-9-9-9-9-6-6-6-6-6-6-6-6-4-4-4-4-4-4-4-4-4-4-4-4-
E|-7-7-7-7-7-7-7-7-7-7-4-4-4-4-4-4-4-4-2-2-2-2-2-2-2-2-2-2-2-2-
|--PM-------|   |--PM---------------|

2.kitara
E|-------------------------------------------------------------
B|-4-2-4----4-2-0----------------------------------------------
G|-------------------------------------------------------------
D|-------------------------------------------------------------
A|-------------------------------------------------------------
E|-------------------------------------------------------------

BRIDGE 1:

E|-------------------------------------------
B|-------------------------------------------
G|-------------------------------------------
D|-9-9-9-9-9-9-9-9-9-9-----------------------
A|-9-9-9-9-9-9-9-9-9-9-----------------------
E|-7-7-7-7-7-7-7-7-7-7-2-4-4-4-4-4-4-2-4-6-7-

REFREN:

E|-------------------------------------------------------------
B|-------------------------------------------------------------
G|---------------------9-9-9-9-9-9-9-9-------------------------
D|-9-9-9-9-9-9-9-9-9-9-9-9-9-9-9-9-9-9-4-4-4-4-4-4-4-4-4-4-4-4-  3x
A|-9-9-9-9-9-9-9-9-9-9-7-7-7-7-7-7-7-7-4-4-4-4-4-4-4-4-4-4-4-4-
E|-7-7-7-7-7-7-7-7-7-7-----------------2-2-2-2-2-2-2-2-2-2-2-2-

E|---------------------------------------------------
B|---------------------------------------------------
G|---------------------9-9-9-9-9-9-9-9---------------
D|-9-9-9-9-9-9-9-9-9-9-9-9-9-9-9-9-9-9-4-X-X-X-X-X-X-    5X
A|-9-9-9-9-9-9-9-9-9-9-7-7-7-7-7-7-7-7-4-X-X-X-X-X-X-
E|-7-7-7-7-7-7-7-7-7-7-----------------2-X-X-X-X-X-X-

VERSE 2:

E|----------------------------------------------
B|----------------------------------------------
G|----------------------------------------------
D|----------------------------------------------
A|----------------------------------------------
E|--7-7-7-7-7-7-7-7-7-7----7-7-7-7-7-7-7-7-7-7--

E|----------------------------------------------------------------
B|----------------------------------------------------------------
G|----------------------------------------------------------------
D|----------------------------------------------------------------   2X
A|----------------------------------------------------------------
E|--7-7-7-7-7-7-7-7-7-74-4-4-4-4-4-4-4-4-4-42-2-2-2-2-2-2-2-2-2-

E|-------------------------------------------------------------
B|-------------------------------------------------------------
G|-------------------------------------------------------------
D|-9-9-9-9-9-9-9-9-9-9-6-6-6-6-6-6-6-6-4-4-4-4-4-4-4-4-4-4-4-4-  2x
A|-9-9-9-9-9-9-9-9-9-9-6-6-6-6-6-6-6-6-4-4-4-4-4-4-4-4-4-4-4-4-
E|-7-7-7-7-7-7-7-7-7-7-4-4-4-4-4-4-4-4-2-2-2-2-2-2-2-2-2-2-2-2-
|--PM-------|   |--PM---------------|

2.kitara
E|-------------------------------------------------------------
B|-4-2-4----4-2-0----------------------------------------------
G|-------------------------------------------------------------
D|-------------------------------------------------------------
A|-------------------------------------------------------------
E|-------------------------------------------------------------

REFREN:

E|-------------------------------------------------------------
B|-------------------------------------------------------------
G|---------------------9-9-9-9-9-9-9-9-------------------------
D|-9-9-9-9-9-9-9-9-9-9-9-9-9-9-9-9-9-9-4-4-4-4-4-4-4-4-4-4-4-4-  3x
A|-9-9-9-9-9-9-9-9-9-9-7-7-7-7-7-7-7-7-4-4-4-4-4-4-4-4-4-4-4-4-
E|-7-7-7-7-7-7-7-7-7-7-----------------2-2-2-2-2-2-2-2-2-2-2-2-

E|---------------------------------------------------
B|---------------------------------------------------
G|---------------------9-9-9-9-9-9-9-9---------------
D|-9-9-9-9-9-9-9-9-9-9-9-9-9-9-9-9-9-9-4-X-X-X-X-X-X-    5X
A|-9-9-9-9-9-9-9-9-9-9-7-7-7-7-7-7-7-7-4-X-X-X-X-X-X-
E|-7-7-7-7-7-7-7-7-7-7-----------------2-X-X-X-X-X-X-

BRIDGE 2:

E|----------------------------------------------
B|----------------------------------------------
G|----------------------------------------------
D|----------------------------------------------  2X
A|----------------------------------------------
E|--7-7-7-7-7-7-7-7-7-7----7-7-7-7-7-7-7-7-7-7--

E|-----------------------------------------
B|-----------------------------------------
G|-----------9-----------------------------
D|-9----6----9----9----4-------------------
A|-9----6----7----9----4-------------------
E|-7----4---------7----2-------------------

E|---------------------------------------------------------------
B|---------------------------------------------------------------
G|-----------------------------9-9-9-9-9-9-9---------------------
D|-9-9-9-9-9-9---6-6-6-6-6-6---9-9-9-9-9-9-9---9-9-9-9---4-4-4-4-
A|-9-9-9-9-9-9---6-6-6-6-6-6---7-7-7-7-7-7-7---9-9-9-9---4-4-4-4-
E|-7-7-7-7-7-7---4-4-4-4-4-4-------------------7-7-7-7---2-4-4-4-
|--PM---|     |--PM---|     |--PM-----|     |-PM-|    |-PM-|

REFREN:

E|-------------------------------------------------------------
B|-------------------------------------------------------------
G|---------------------9-9-9-9-9-9-9-9-------------------------
D|-9-9-9-9-9-9-9-9-9-9-9-9-9-9-9-9-9-9-4-4-4-4-4-4-4-4-4-4-4-4-  3x
A|-9-9-9-9-9-9-9-9-9-9-7-7-7-7-7-7-7-7-4-4-4-4-4-4-4-4-4-4-4-4-
E|-7-7-7-7-7-7-7-7-7-7-----------------2-2-2-2-2-2-2-2-2-2-2-2-

E|---------------------------------------------------
B|---------------------------------------------------
G|---------------------9-9-9-9-9-9-9-9---------------
D|-9-9-9-9-9-9-9-9-9-9-9-9-9-9-9-9-9-9-4-X-X-X-X-X-X-    5X
A|-9-9-9-9-9-9-9-9-9-9-7-7-7-7-7-7-7-7-4-X-X-X-X-X-X-
E|-7-7-7-7-7-7-7-7-7-7-----------------2-X-X-X-X-X-X-

E|---------
B|---------
G|---------
D|-9~------
A|-9~------
E|-7~------

trzalica bar

trzalica bar

Pesem je naložil

neznan avtor

Deli z drugimi

Vaš e-naslov ne bo objavljen. * označuje zahtevana polja