Kje imaš kitaro in trzalico? Besedilo in akordi so spodaj :-)

[[ DISCLAIMER ]]

Besedila in akordi na TrzaliciOglej si še: videolekcija Ti si vse

trzalica bar

|-------------------------------------------------------------------|
|-Avtor tabov:Mihec:-----Mkoros19@volja.net----www.bigfootmama.tk---|
|-------------------------------------------------------------------| 

Drštvo mrtvih pesnikov - Ti si vse

   H                       F#           G#m                     E
e|----11-----------------------------------12-------11-------12----------------|
B|-------12----14-12----11--------------------12-------12----------------------|
G|-11-------11-------11-----------------11-------11-------11-------------------|
D|-----------------------------------------------------------------------------|
A|-----------------------------------------------------------------------------|
E|-----------------------------------------------------------------------------|

   H                       F#           G#m                     E
e|----11-----------------------------------12-------11-------12---------11----------------14----|
B|-------12----14-12----11--------------------12-------12---------12---------12--------12-------|
G|-11-------11-------11-----------------11-------11-------11---------11---------11--------------|
D|----------------------------------------------------------------------------------------------|
A|----------------------------------------------------------------------------------------------|
E|----------------------------------------------------------------------------------------------|

H                 F#             G#m
Rad bi bil tvoja senca, ko boš šla
             E          H
Rad bi bil odeja za oba
              F#             G#m
Hočem bit blazina, ko greš spat,
              E                     H
Rad bi bil fotelj, ko ne moreš stat

            F#            G#m
Bil bi oblačilo, ko naga si,
              E                H
Najbolj nežna ura, ki te zbudi
             F#           G#m
Ledeni sladoled, ki ga poješ,
                        E
Rad bil bi samo tvoj angel, ko umreš.

V drugi kitici:
   H         F#       G#m       E        H         F#       G#m       E 
e|-0---------0---------------------0--------0---------0--------0---------0---------------------7------7---|
B|--4------4--4-----------4---------4--------4---------4--------4---------4-------5--7----5---------5-----|
G|----------------------4-----------------------------------------4---------4-------4----4----4---4-------|
D|--------------------------------------------------------------------------------------------------------|
A|---------------------------------------2----------------------------------------------------------------|
E|------------------------------0------------------2--------4---------0-----------------------------------|

REFREN:
            H                F#              
Ker ti si vse, vse kar jaz imam,
         G#m             E              
Danes si tu, a jutri si tam,
            H  F#                E
Ker ti si vse,     vse kar jaz imam!

Prehod v verz:
   H    F#   G#m  E    H
e|-11---9----11---12---11---|
B|-12---11---12---12---12---|
G|-11---11---13---13---11---|  < brenkaj te prijeme
D|--------------------------|
A|--------------------------|
E|--------------------------|

H             F#         G#m
Bil bi tvoja barva v laseh,
               E             H
Na usta ti prilepil bi nasmeh,
               F#             G#m
Lahko sem tudi solza, ko jočeš se,
             E                H
Bil bi črno vino, da popiješ me.

                F#               G#m
Jaz sem hladen veter, ko ti vroče je
                E                   H
Ko je hladno pulover, da segrejem te.
                 F#             G#m
Kot tvoja rdeča šminka na ustnicah,
                 E
Na tvoji roki ležal bi kot beli prah.

V drugi kitici:
    H         F#       G#m       E      H        F#       G#m       E 
e|--------------0--------0--------0---0------------0-------0-----------0-----------------7-----7------|
B|-4-----------4----------4--------4---4------------4-------4-----------4-----5-7----5-----5-----5----|
G|--4-----------------------4--------4---4--------4------------------4------4------4---4-----4-----4--|
D|----------------------------------------------------------------------------------------------------|
A|----------------------------------------------------------------------------------------------------|
E|----------------------------------------------------------------------------------------------------|

REFREN:
            H                F#              
Ker ti si vse, vse kar jaz imam,
         G#m             E              
Danes si tu, a jutri si tam,
            H  F#                E
Ker ti si vse,     vse kar jaz imam!
            H                F#              
Ker ti si vse, vse kar jaz imam,
         G#m             E              
Danes si tu, a jutri si tam,
            H  F#                G#m     E
Ker ti si vse,     vse kar jaz imam!

Solo: 

  H  F#  G#m  E  < 2x
  E  G#m  C#m  G#m  E

Konec
  H  F#  G#m  E

trzalica bar

trzalica bar

Pesem je naložil

spletna stran

Deli z drugimi

Vaš e-naslov ne bo objavljen. * označuje zahtevana polja