Kje imaš kitaro in trzalico? Besedilo in akordi so spodaj :-)

[[ DISCLAIMER ]]

INTRO:

    E   - X799XX
    C#m - X466XX  \_ Igraj te power akorde!
    A   - 577XXX  /
    H   - 799XXX

                     2x                                             2x
e|--------------------------------------------|--------------------------------------------|
B|--------------------------------------------|--------------------------------------------|
G|--------------------------------------------|--------------------------------------------|
D|----6-4----------6--------------------------|--------------------------------------------|
A|-7------7---4--7---7---0---6-7-6---6667-9---|-6--7-9--6--7-9--6--7-9---11--11-9--11-9-11-|
E|--------------------------------------------|--------------------------------------------|

e|-----------------------------|
B|-9----9-------------999-7-7--|
G|-9-------9----------999-7-7--| 1. kitara
D|-9-----------9------999-7-7--|
A|-7---------------------------|
E|-----------------------------|

e|----------------------------------|
B|----------------------------------|
G|-9-----------------------999-7-7--| 2. kitara
D|-9---99999999999999999999999-7-7--|
A|-7---77777777777777777777777-5-5--|
E|----------------------------------|
       ××××××××××××××××××××

VERZ 1:

   A              E         D           A
Povabu bi te na ples, a so moje noge tako težke
                  E           D    E
Povabu bi te na ples, ko bi znal plesat
   A              E      D                 A
Povedal bi ti marsikej, a se mi jezik za nebo drži
                   E         D      E
Ko tako stojim ob tebi se počutm totaln debil

e|-------------------------------------------------------------------------------------------------------|
B|-5--5--9--9--7--7--5--5--5--5--9--9--7--7---------5--5--9--9--7--7--5--5--5--5--9--9--7--7--9--9-------|
G|-6--6--9--9--7--7--6--6--6--6--9--9--7--7--9999\--6--6--9--9--7--7--6--6--6--6--9--9--7--7--9--9--9----| 1. kitara
D|-7--7--9--9--7--7--7--7--7--7--9--9--7--7--9999\--7--7--9--9--7--7--7--7--7--7--9--9--7--7--9--9--9----|
A|-7--7--7--7--5--5--7--7--7--7--7--7--5--5--7777\--7--7--7--7--5--5--7--7--7--7--7--7--5--5--7--7--7----|
E|-------------------------------------------------------------------------------------------------------|

e|-----------------------------------------------------------------------------|
B|-----------------------------------------------------------------------------|
G|-9999------------------------------------------------------------9999999-----| 2. kitara
D|-9999----------9-9999997-777777----------------9-9999997-7777779-9999999-----|
A|-7777--7-7777777-7777775-5555557-7777777-7777777-7777775-5555557-------7-----|
E|-------5-555555----------------5-5555555-555555------------------------------|
         ××××××××××××××××××××××××××××××××××××××××××××××××××××××××××××××××

REFREN 1:

    C  - X355XX
    Am - X022XX  \_ Igraj te power akorde!
    F  - 133XXX  /
    G  - 355XXX
    Em - 022XXX

C    Am   F             G
Ej, punca, tle stojim, sem poglej
C            Em       F                 G
Faca bleda, ja seveda, to sem jaz, ki skoz te gleda
C    Am   F             G
Ej, punca, tle stojim, sem poglej
C              Em         F                 G
Čakam, gledam, se sesedam, to sem jaz, ki skoz te gledam

PREHOD V VERZ 2:

e|----------|--------------------------------------------|-------------------------------------------|
B|----------|--------------------------------------------|------------------------------7-10--9-7----|
G|----------|--------------------------------------------|-9---------------------------9----------9--|
D|----------|----6-4----------6--------------------------|-9---99-9-9-9-9-9-9-9-9-9-9-9--------------|
A|----------|-7------7---4--7---7---0---6-7-6---6667-9---|-7-----------------------------------------|
E|-777-8-10-|--------------------------------------------|-------------------------------------------|

VERZ 2:

   A              E         D           A
Povabu bi te na ples, a so moje noge tako težke
                  E           D    E
Povabu bi te na ples, ko bi znal plesat
   A            E     D            A
Zate bi nabavu psa, sklatu zvezde, šel do dna
              E              D             E
A ko tako ob tebi stojim, totaln debil sam seb se zdim

REFREN 2:

C    Am   F             G
Ej, punca, tle stojim, sem poglej
C            Em       F                 G
Faca bleda, ja seveda, to sem jaz, ki skoz te gleda
C    Am   F             G
Ej, punca, tle stojim, sem poglej
C              Em         F                 G
Čakam, gledam, se sesedam, to sem jaz, ki skoz te gledam
C
  eej, ooo, eej, ooo,

SOLO:
   C    Am    F        G      C     Em       F         G
e|--------------------------------------------------------------|
B|--------------------------------------------------------------|
G|--------------------------------------------------------------|
D|-2----------7--5----------------------------------------------|
A|------0----0------8--7--8--77---7-10---10-12--10--8--7--8--7--|
E|--------------------------------------------------------------|

   C    Am    F        G             C      Em       F           G     Am
e|---------------------------------------------------------------------------------|
B|------------10--8----------------------------------------------------14----------|
G|-9---9-------------10-9-10-p9h10p9-9----9-12----12-14--12--10--12----14----------|
D|------7----7---------------------------------------------------------12----------|
A|---------------------------------------------------------------------------------|
E|---------------------------------------------------------------------------------|

REFREN 3:
 C             Am          F               G
Tu zdaj hiram, te požiram, ti pa sploh ne vidiš me
 C             Em          F               G
Tu zdaj hiram, te požiram, ti pa sploh ne vidiš me

C    Am   F             G
Ej, punca, tle stojim, sem poglej
C            Em       F                 G
Faca bleda, ja seveda, to sem jaz, ki skoz te gleda
C    Am   F             G
Ej, punca, tle stojim, sem poglej
C              Em         F                 G
Čakam, gledam, se sesedam, to sem jaz, ki skoz te gledam

Napisal: sebo

Zahvala gre AliAs-u, ki mi je precej pomagal. Hvala!
trzalica bar

trzalica bar

Pesem je naložil

sebo

Deli z drugimi

Vaš e-naslov ne bo objavljen. * označuje zahtevana polja