Kje imaš kitaro in trzalico? Besedilo in akordi so spodaj :-)

[[ DISCLAIMER ]]

Besedila in akordi na TrzaliciVse verzije te pesmi:      Upornika brez razloga (tab)      Upornika brez razloga (bas)

trzalica bar

   ___________________________________________________________
  |  _______________________________________________________  |
  | |                                                       | |
  | | IZVAJALEC: .............. Zablujena generacija        | |
  | | PESEM: .................. Upornika brez razloga       | |
  | | ALBUM: .................. Pop Idoli                   | |
  | |_______________________________________________________| |
  | |                                                       | |
  | |   Avtor transkripcije: AliAs                          | |
  | |   Domača stran transkripcije: www.trzalica.com        | |
  | |   Datum nastanka transkripcije: 30.9.2007             | |
  | |_______________________________________________________| |
  |___________________________________________________________|

TABLATURA ZA BAS KITARO:

INTRO:
                            4x
G|----------|----------------------------------|------------------|
D|----------|----------------------------------|------------------|
A|----------|-777777777777777744444444---------|-77777777---------|
E|-55557777-|-------------------------55557777-|----------7775555-|

VERZ 1:
G|------------------------------------------------------------------|
D|------------------------------------------------------------------|
A|------------------------------------------------------------------|
E|-0000000077777777555555555555777700000000777777775555555577777777-|

G|----------------------------------------------------------------|
D|----------------------------------------------------------------|
A|-4444444477777777----------------4444444477777777---------------|
E|-----------------5555555577777777----------------55555557---77-|

REFREN 1:
G|----------------------------------|
D|----------------------------------|
A|-22222222-------------------------|
E|---------222222224444444400002222-|

Prehod:
G|------------------------------------------|
D|------------------------------------------|
A|-----------------7777777744444444---------|
E|-0000000077777777----------------55557777-|

VERZ 2:
G|------------------------------------------------------------------|
D|------------------------------------------------------------------|
A|-------------------------------------------------44444444---------|
E|-000000007777777755555555555577770000000077777777--------55557777-|

G|----------------------------------------------------------------|
D|----------------------------------------------------------------|
A|-4444444477777777----------------4444444477777777---------------|
E|-----------------5555555577777777----------------55555557---77-|

REFREN 2:
G|----------------------------------|
D|----------------------------------|
A|-22222222-------------------------|
E|---------222222224444444400002222-|

BRIDGE:
(se tebi tudi zdi...)
G|---------------------------------------|
D|---------------------------------------|
A|-22222222------------------------------|
E|---------22222222444-----00--22--444---|

          5x
G|------------------|---------------------------------1111111111111------|
D|------------------|----------------------------------------------------|
A|-11111111---------|-44444444--------2222222222222222-------------------|
E|---------22224444-|---------22224444-----------------------------------|

REFREN 3:
G|----------------------------------|-------------|
D|----------------------------------|-------------|
A|-22222222-------------------------|-2-----------|
E|---------222222224444444400002222-|-------------|

trzalica bartrzalica bar

Pesem je naložil

AliAs

Deli z drugimi

Vaš e-naslov ne bo objavljen. * označuje zahtevana polja