Kje imaš kitaro in trzalico? Besedilo in akordi so spodaj :-)

[[ DISCLAIMER ]]

 _________________________________________________________________________
|
| IZVAJALEC: .............. Siddharta
| PESEM: .................. A.M.L.P.
| ALBUM: .................. Nomadi
| LETO IZIDA: ............. 2018
| SPLETNA STRAN: .......... https://www.siddharta.net/
|
| Transkripcija: AliAs (AKooSTeeKA) / april, 2021
|_________________________________________________________________________

Kapodaster na 2. polje!
Tablaturo in besedilo z akordi beri, kot da nimaš kapodastra na kitari.
Kapodaster služi samo temu, da drži 6. struno na 2. prečki (ton F#).

LEGENDA ZNAKOV:
p = pull off
h = hammer on
/ = slide up
\ = slide down
b = bend za cel ton

Prijemi akordov za Refren:
D     - 5 5 7 7 X X
E     - 7 7 9 9 X X
Esus4 - 7 7 9 9 10X
Hm    - 7 9 9 X X X

==========================================================================
Trzalica.COM besedila z akordi in kitarske tablature slovenskih izvajalcev
==========================================================================

---Uvod:

Kitara 1:
|-------------------------------------|
|-------------------------------------|
|-9-/11-11-11----14-14\11-11-11----9--| 4x
|-------------------------------------|
|-7-/9--9--9-----12-12\9--9--9-----7--|
|-2--2--2--2--2--2--2--2--2--2--2--2--|

Nato brez zgornje strune
|-------------X-----------------------|
|-------------X-----------------------|
|-9-/11-11-11-X--14-14\11-11-11-9--9--| 2x
|-------------X-----------------------|
|-7-/9--9--9--X--12-12\9--9--9--7--7--|
|-------------X-----------------------|

|-------------X---------------------------X-----------|
|-------------X---------------------------X-----------|
|-9-/11-11-11-X--11-11-----13-13/14-14-14-X-14-14-----|
|-------------X---------------------------X-----------|
|-7-/9--9--9--X--9--9------11-11/12-12-12-X-12-12-----|
|-------------X---------------------------X-----------|

|-------------X-----------------------|
|-------------X-----------------------|
|-9-/11-11-11-X--14-14\11-11-11-9--9--| 2x
|-------------X-----------------------|
|-7-/9--9--9--X--12-12\9--9--9--7--7--|
|-------------X-----------------------|

|-------------X---------------------------X-----------|
|-------------X---------------------------X-----------|
|-9-/11-11-11-X--11-11-----9--9-/11-11-11-X-11-11-----|
|-------------X---------------------------X-----------|
|-7-/9--9--9--X--9--9------7--7-/9--9--9--X-9--9------|
|-------------X---------------------------X-----------|

Kitara 2:
  D                E                F#m
|---------------------------------------------------------------------|
|---------------------------------------------------------------------|
|-7---7---7-7----7/9---9---9-9----9/11--11--1111---9/11--11--1111-----|
|-7---7---7-7----7/9---9---9-9----------------------------------------|
|-5---5---5-5----5/7---7---7-7----7/9---9---9-9----7/9---9---9-9------|
|-5---5---5-5----5/7---7---7-7----2-2---2---2-2----2-2---2---2-2------|

---Verz:

       D        E                    F#m
Mi lahko poveš kje naj odprem svoje roke
So umazane,   bele  in  črne   in   mokre
Mi lahko poveš kdaj  se  obuje  v   tuje
Si  obarvala  vse  kar  tvoj  um  potrebuje

---Refren:

F#m
A mi lohk poveš...
A mi lohk poveš...
           D               E
Kaj je nastalo iz lepih obrazov
    Hm                Esus4  E
Ljubezni in čistih izrazov
F#m
A mi lohk poveš...
A mi lohk poveš...
          D
Kje je vesolje, če nimava sonca,
     Hm                 Esus4  E
Življenje brez pravega konca
    F#m
Mi lahko poveš...

  F#m
|-------------------------------------|
|-------------------------------------|
|-9-/11-11-11----14-14\11-11-11----9--| 4x
|-------------------------------------|
|-7-/9--9--9-----12-12\9--9--9-----7--|
|-2--2--2--2--2--2--2--2--2--2--2--2--|

---Prehod v Verz:

  F#m
|-----------------------------|-------------------|
|-----------------------------|-------------------|
|-----------------------------|-------------------|
|-9-/11--11---14-14\11--11--9-|-9-/11--11--11-11--|
|-7-/9---9----12-12\9---9---7-|-7-/9---9---9--9---|
|-----------------------------|-------------------|

---Verz:

F#m
Ko nastal bo led in bodo v zmoti roboti
Ne pozabi na tolpe, ki grejo nasproti
  D             E
Spomni se name črnih dlani
 F#m
Belih obrazov in zlatih oči
 C#              D
Spomni se name preden znoriš
 D#
Spomni se name ko svet krvavi

|-----------------------|
|-----------------------|
|-----------------------| dušeno z dlanjo
|-----------------------|
|-7-------------------7-|
|---2--2---5-5-2--2-----|

  C#   D    D#
|------------------|
|------------------|
|-6----7----8--/---| hitro strumanje dol-gor
|------------------|
|-4----5----6--/---|
|------------------|

---Refren:

F#m
      D          E
A mi lohk poveš...
     F#m
A mi lohk poveš...
           D               E
Kaj je nastalo iz lepih obrazov
    Hm                Esus4  E
Ljubezni in čistih izrazov
      D          E
A mi lohk poveš...
     F#m
A mi lohk poveš...
          D                E
Kje je vesolje, če nimava sonca,
     Hm                 Esus4  E
Življenje brez pravega konca

---Solo:
             D        C#m         E
|------------------------------------------------------------|
|------------------------------------------------------------|
|------------------------------------------------------------|
|------------------------------------------------------------|
|------7-9-7-9---11-9-11---12-11-12/14--14--12-14---14/16\14-|
|-14\--------------------------------------------------------|

  F#m               E                    D
|--------------------------------------------------------------------|
|-------------------------------10h12-10-----------------------------|
|-------------11----11-14-11-14----------13--11--11----11---11-14-11-|
|-11-14-11-14----14---------------------------------14---------------|
|--------------------------------------------------------------------|
|--------------------------------------------------------------------|

   D             C#m           E
|----------------------------------------------------------------------|
|-------------------14------14-14-15-14h15p14-----------14-15-14h15p14-|
|-14/16--16---16-16b---16b---------------------------------------------|
|---------------------------------------------16-14-16-----------------|
|----------------------------------------------------------------------|
|----------------------------------------------------------------------|

  F#m              E                    D
|-------------------------------------------------------------------------|
|-----------14-15-14h15p14------------------------------------------------|
|-------------------------------------------------------------------11----|
|-16-14-16-----------------16-14-16-14-14h16p14\12-14-12-11-12---14----14-|
|-------------------------------------------------------------------------|
|-------------------------------------------------------------------------|

  D            C#m           E
|--------------------------------------------------------|
|--------------------------------------------------------|
|-11--14-11----11------11----11-14--11-----11------11----|
|-----------14------14----14------------14------14----14-|
|--------------------------------------------------------|
|--------------------------------------------------------|

  F#m                E                D
|----------------------------------12-----12-----12---------------|
|-------------12----12/14-12-14-15----15-----15-----15---17-19-17-|
|-11-14-11-14----14-----------------------------------------------|
|-----------------------------------------------------------------|
|-----------------------------------------------------------------|
|-----------------------------------------------------------------|

  D             C#m           E
|----17--------------------------17-----------------------|
|-19-----19--17-19---17-19-17-19-----19--17-19---17-19-17-|
|---------------------------------------------------------|
|---------------------------------------------------------|
|---------------------------------------------------------|
|---------------------------------------------------------|

  F#m             E              D
|-----17------17-17-19---19--19-19-17-17-17--16-17-----\-|
|-19------19---------------------------------------------|
|--------------------------------------------------------|
|--------------------------------------------------------|
|--------------------------------------------------------|
|--------------------------------------------------------|

---Most:

D                E
A mi lohk poveš...
     F#m
A mi lohk poveš...

D   E   A

      D          E
A mi lohk poveš...
     F#m
A mi lohk poveš...

          D                E
Kje je vesolje, če nimava sonca,
         Hm                 Esus4  E
Kaj življenje brez pravega konca

---Refren:

      D          E
A mi lohk poveš...
      F#m
A mi lohk poveš...
          D               E
Kaj je ostalo od lepih obrazov
    Hm                Esus4  E
Ljubezni in čistih izrazov
      D          E
A mi lohk poveš...
     F#m
A mi lohk poveš...
          D
Kje je vesolje, če nimava sonca,
         Hm                 Esus4  E
Kaj življenje brez pravega konca
      F#m
Mi lahko poveš

Pesem je naložil

AliAs

Deli z drugimi

  1. Gregor Janc

    2. septembra, 2021 at 18:18

    ful hvalaaaaaaaaaaaa. Odlično. Sem čakal na tole...

  2. Gregor Janc

    26. septembra, 2021 at 12:45

    problem.. zakaj se ne da kopirat v worda?

Vaš e-naslov ne bo objavljen. * označuje zahtevana polja

VIDEO za igranje ob kitari

Please Add Widget from here