Kje imaš kitaro in trzalico? Besedilo in akordi so spodaj :-)

[[ DISCLAIMER ]]

Drop-D tuning

Intro

e-------------------------------------------------------------------------|
B-------------------------------------------------------------------------|
G--11-11-11-11-12-11--11-11-11-11--11-11-11-11-12-11—-11-11-11-11---------|
D--9--9--9--9--9—-9---9--9--9--9---9--9--9—-9--9—-9---9—-9—-9—-9----------|
A-------------------------------------------------------------------------|
D-------------------------------------------------------------------------|

e-------------------------------------------------------------------------|
B-------------------------------------------------------------------------|
G--11-11-11-11-12-11--11-11-11-11--11-11-11-11-12-11—-11-11-11-11---------|
D--9--9--9--9--9—-9---9--9--9--9---9--9--9—-9--9—-9---9—-9—-9—-9----------|
A-------------------------------------------------------------------------|
D-------------------------------------------------------------------------|

e-------------------------------------------------------------------------|
B-------------------------------------------------------------------------|
G-------------------------------------------------------------------------|
D--999-5555-222-4-12-12-11----999-5555-222-4-12-12-11---------------------|
A--999-5555-222-4-12-12-11----999-5555-222-4-12-12-11---------------------|
D--999-5555-222-4-12-12-11----999-5555-222-4-12-12-11---------------------|

Verse

e-------------------------------------------------------------------------|
B-------------------------------------------------------------------------|
G-------------------------------------------------------------------------|
D--9999999999-5555555555-2222222-44444444---------------------------------|
A--9999999999-5555555555-2222222-44444444---------------------------------|
D—-9999999999-5555555555-2222222-44444444---------------------------------|

Chorus

e-------------------------------------------------------------------------|
B-------------------------------------------------------------------------|
G-------------------------------------------------------------------------|
D--9999999999-77777777-5555555555-44444444--------------------------------|
A--9999999999-77777777-5555555555-44444444--------------------------------|
D—-9999999999-77777777-5555555555-44444444--------------------------------|

Ending

e-------------------------------------------------------------------------|
B-------------------------------------------------------------------------|
G--11-11-11-11-12-11--11-11-11-11--11-11-11-11-12-11—-11-11-11-11---------|
D--9--9--9--9--9—-9---9--9--9--9---9--9--9—-9--9—-9---9—-9—-9—-9----------|
A-------------------------------------------------------------------------|
D-------------------------------------------------------------------------|

e-------------------------------------------------------------------------|
B-------------------------------------------------------------------------|
G--11-11-11-11-12-11--11-11-11-11--11-11-11-11-12-11—-11-11-11-11---------|
D--9--9--9--9--9—-9---9--9--9--9---9--9--9—-9--9—-9---9—-9—-9—-9----------|
A-------------------------------------------------------------------------|
D-------------------------------------------------------------------------|

trzalica barAmnesia by Leaf-Fat on Groovesharktrzalica bar

Pesem je naložil

spletna stran

Deli z drugimi

Vaš e-naslov ne bo objavljen. * označuje zahtevana polja