Kje imaš kitaro in trzalico? Besedilo in akordi so spodaj :-)

[[ DISCLAIMER ]]

 ___________________________________________________________
|  _______________________________________________________  |
| |                                                       | |
| | IZVAJALEC: ........... Zmelkoow                       | |
| | PESEM: ............... Bit                            | |
| | ALBUM: ............... Dej, nosorog, pazi kam stopaš! | |
| | LETO IZIDA: .......... 1999                           | |
| | SPLETNA STRAN: ....... http://www.zmelkoow.net/       | |
| |_______________________________________________________| |
| |                                                       | |
| |         Transkripcija: AliAs / december, 2020         | |
| |                                                       | |
| |            w w w . t r z a l i c a . c o m            | |
| |_______________________________________________________| |
|___________________________________________________________|
============================================================
Pol tona nižja uglasitev!
============================================================
Trzalica.com        Trzalica.com        Trzalica.com        
============================================================

 

UVOD:
H-H-H  A-H-A-H-E
H-H-H  A-H-A-H-A
H-H-H  A-H-D-H-A
G-G-G  A-H-D-H-A

 

KITICA:
D
Zadeli smo filozofijo v čelo 
D#        B   E           A
našli smo bit okroglo in debelo
D
se je skrivala na otoku sredi oceana
D#           B      E        A
s sladoledom v roki vsa nasmejana
D
o bit ti nesrečna zakaj si se skrila
D#        B          E        A  
ko te ni blo je svet zmeda prekrila 
D
ljudje levo desno brezglavo hitijo
D#         B         E      A
smisla in bistva si srčno želijo
   DDD C  D C D  F  D#      B           E         A
o, bit usmili se nas in povej enkrat za vselej na glas
       D    D    D      C  D C D     F
kaj je smisel in namen kako je treba živet
        D#        B         E        A
da bomo srečni in zdravi od glave do pet

 

REFREN:
h                   E                     A              D         A
smisel življenja je ležanje na plaži z možgani na off in čiwawo na straži
h                   E              A                       D        A
visenje v mreži med dvemi drevesi, slalom v ravnini z zarjavelimi kolesi
h                   E               A                  D           A
smisel življenja je jahanje oblakov pihanje v sonce in lomljenje korakov
h                   E               A                     D           A
sanjanje parnika na modrem ogledalu piknik z mravljico in luknja v sandalu

 

SOLO ZA KLAVIATURO:
    h          E            A          D     A
eb|-2-----------------------0----------2--2--0--2-0--|
Hb|----3-----------------------2----2----------------|
Gb|-------4-2--1---------1--------2------------------|
Db|---------------2--2-4-----------------------------|
Ab|--------------------------------------------------|
Eb|--------------------------------------------------|
    h            E          A          D         A
eb|-7------7---------7-12---9------9---14--------9----------|
Hb|----7-------9---9-----------10--------15--------10-------|
Gb|-----7--------9---------------9---------14--------9------|
Db|------9-----------------------------------16--------11---|
Ab|---------------------------------------------------------|
Eb|---------------------------------------------------------|

 

PREHOD V KITICO:
H-H-H  A-H-A-H-E
H-H-H  A-H-A-H-A
H-H-H  A-H-D-H-A
G-G-G  A-H-D-H-A

 

KITICA:
D
Zadeli smo filozofijo v čelo 
D#        B   E           A
našli smo bit okroglo in debelo
D
se je skrivala na otoku sredi oceana
D#           B      E        A
s sladoledom v roki vsa nasmejana
D
kasneje je priznala da je že nekaj spila 
          D#   B            E        A
in da sta z aristipom enega prej pokadila
D
vseeno se ni zmedla in je še enkrat ponovila 
D#      B       E         A
modri nasvet in plava navodila

 

REFREN:
h                   E                     A              D         A
smisel življenja je ležanje na plaži z možgani na off in čiwawo na straži
h                   E              A                       D        A
visenje v mreži med dvemi drevesi, slalom v ravnini z zarjavelimi kolesi
h                   E               A                  D           A
smisel življenja je jahanje oblakov pihanje v sonce in lomljenje korakov
h                   E               A                     D           A
sanjanje parnika na modrem ogledalu piknik z mravljico in luknja v sandalu

 

SOLO NA KITARI:
    h           E      A            D        A
eb|----------------------------12------------------|
Hb|-12\--7---12-9-------------------10-10-10-8-7-5-|
Gb|----------------9---14\--9-------11-11-11-9-7-6-|
Db|------------------------------------------------|
Ab|------------------------------------------------|
Eb|------------------------------------------------|
     h            E              A            D      A
eb|---------------------------------------------------------|
Hb|-------------7------7--------------------5------5--------|
Gb|----6-7-7--9---9-------9--------4-6-6--7---7------7--6---|
Db|-/9---------------9-------9--/7---------------7----------|
Ab|---------------------------------------------------------|
Eb|---------------------------------------------------------|
REFREN:
h                   E                     A              D         A
smisel življenja je ležanje na plaži z možgani na off in čiwawo na straži
h                   E              A                       D        A
visenje v mreži med dvemi drevesi, slalom v ravnini z zarjavelimi kolesi
h                   E               A                  D           A
smisel življenja je jahanje oblakov pihanje v sonce in lomljenje korakov
h                   E               A                     D           A
sanjanje parnika na modrem ogledalu piknik z mravljico in luknja v sandalu

 

Pesem je naložil

AliAs

Deli z drugimi

Vaš e-naslov ne bo objavljen. * označuje zahtevana polja

VIDEO za igranje ob kitari

Please Add Widget from here