Kje imaš kitaro in trzalico? Besedilo in akordi so spodaj :-)

[[ DISCLAIMER ]]

 ___________________________________________________________
|  _______________________________________________________  |
| |                                                       | |
| | IZVAJALEC:...Dan D                                    | |
| | PESEM:.......Boli me k                                | |
| | ALBUM:.......Knjiga pohval in pritožb (milo za drago) | |
| |_______________________________________________________| |
| |                                                       | |
| |           Transkripcija: AliAs / april, 2021          | |
| |                       AKooSTeeKA                      | |
| |            w w w . t r z a l i c a . c o m            | |
| |_______________________________________________________| |
|___________________________________________________________|

==========================================================================
Trzalica.COM besedila z akordi in kitarske tablature slovenskih izvajalcev
==========================================================================

Uvod in Verz:

e|-----------3--------------6----|
H|-----5--------------8----------|
G|---3-----3--------6-----6------|
D|-5-----5--------8-----8--------|
A|-------------------------------|
E|-------------------------------|

Dm                   A
Vse se lahko zlije v eno
                     C
Če mi verjameš na besedo
Barva kože brez porekla
Em7                     G
Noč pod tvojo desno miško

          A#
Kar je v glavi naj bo noter
Naj ne dela drugje zmedo
Asus4
Duša najde svojo hiško
A
Preden se oči zavedo

Dm
Isti spoli brez predsodkov
                     A
Druge vere brez ekstrema
C
Človek narejen iz stekla
Oče, mati, tašča, boter
Em7                  G
Sam da je prava vnema

         A#
Ko je v tebi morje sreče
Ne zaupaj več, oživi
      Asus4
Vsi mutanti ki jih ljubiš
      A
Niso več v tvoji bližini

Refren:

Gm
Js sem si najdu song
           Dm
In boli me k
Gm
Js sem si najdu song
           Dm
In boli me k
A a a aaaa
Gm
Js sem si najdu song
           Dm
In boli me k
Au au
Jee jeee
Gm
Js sem si najdu song
           A#
In boli me ko
Asus4        A
nisem več z njo

Verz:
Vse lahko preliješ z vinom
Zato ljubi bolj kot drugi
Z levo roko na krmilu
Ko odhajaš pojdi v stilu

Sončni žarki so s popustom
Ti stojiš v prvi vrsti
Dragi moji sovaščani
Haleluja js grem z vami

Solo:

e|-13-13--13-13--13--15-17----15-15--13--10-9-----9--9--9--------12-9----|
H|-15-15--15-15--15--17-18----17-17--15--11-10----10-11-10----10------10-|
G|-----------------------------------------------------------------------|
D|-----------------------------------------------------------------------|
A|-----------------------------------------------------------------------|
E|-----------------------------------------------------------------------|

e|-13-13-13--15-15-15--17-17-17--19-19-19-20----20-20-17-17--17---|
H|-11-11-11--13-13-13--15-15-15--17-17-17-18----18-18-18-18--18---|
G|----------------------------------------------------------------|
D|----------------------------------------------------------------|
A|----------------------------------------------------------------|
E|----------------------------------------------------------------|

e|-17-17-15-15-13-13----12-12-13-12-15---15-15--18--17---18-20-18-17----|
H|-18-18-17-17-15-15----13-13-15-13-17---17-17--17--17------------------|
G|----------------------------------------------------------------------|
D|----------------------------------------------------------------------|
A|----------------------------------------------------------------------|
E|----------------------------------------------------------------------|

Refren:

Gm
Js sem si najdu song
           Dm
In boli me k
Gm
Js sem si najdu song
           Dm
In boli me k
A a a aaaa
Gm
Js sem si najdu song
           F
In boli me k
Au au
Jee jeee
Gm
Js sem si najdu song
           A#
In boli me ko
Asus4        A
nisem več z njo

 

Pesem je naložil

AliAs

Deli z drugimi

Vaš e-naslov ne bo objavljen. * označuje zahtevana polja

VIDEO za igranje ob kitari