Kje imaš kitaro in trzalico? Besedilo in akordi so spodaj :-)

[[ DISCLAIMER ]]

 _______________________________________________________
|                                                       |
| IZVAJALEC: ...................... Srečna mladina      |
| PESEM: .......................... Divji Grm Na Vzhodu |
| ALBUM: .......................... Listen to SM        |
| LETO IZIDA: ..................... 2005                |
|_______________________________________________________|
|                                                       |
|  Vrsta transkripcije: Tablatura                       |
|  Avtor transkripcije: AliAs                           |
|  Domača stran transkripcije: Trzalica.com             |
|  Datum nastanka transkripcije: 14.3.2007              |
|_______________________________________________________|
================================================================================================
1.kitara = Peter Dekleva
2.kitara = Vlado Mihajlovič
Pri 'kitarah' sem v oklepaju napisal še efekte, s katerimi je pesem posneta.
Pitch shifter nastavite na 1 oktavo višje.
Pesem sem razdelil na 8 delov.
LEGENDA ZNAKOV:
   M = MUTE
   / = slide up
   \ = slide down
   v = Vibrated
   ^ = bend up za 1/2 tona
   b = hiter bend up za cel ton
^^^^ = počasen bend up do 1/2 tona
^^^b = počasen bend up do celega tona
   r = release bend
   P = poudarjeni udarci (uporabljeno v 7. delu)
================================================================================================
1. DEL (00:00 - 00:27) *************************************************************************
2. kitara (distorzija):
       * 5x
   C#m           C#m   D       C#m           C#m   E
e|-9--9--9--9--|-9--9--10-10-|-9--9--9--9--|-9--9--7--7--|
H|-9--9--9--9--|-9--9--10-10-|-9--9--9--9--|-9--9--9--9--|
G|-9--9--9--9--|-9--9--11-11-|-9--9--9--9--|-9--9--9--9--|
D|-11-11-11-11-|-11-11-12-12-|-11-11-11-11-|-11-11-9--9--|
A|-11-11-11-11-|-11-11-12-12-|-11-11-11-11-|-11-11-7--7--|  \
E|-9--9--9--9--|-9--9--10-10-|-9--9--9--9--|-9--9--------|   \
     M  M  M  M    M  M  M  M    M  M  M  M    M  M  M  M     \
                                                               \  -- 2x
   F#m           F#m   A       F#m           F#m   H           /     V prvi ponovitvi prvi 
e|-2--2--2--2--|-2--2--5--5--|-2--2--2--2--|-2--2--7--7--|    /      takt (C#m) ponovimo 5x.
H|-2--2--2--2--|-2--2--5--5--|-2--2--2--2--|-2--2--7--7--|   /
G|-2--2--2--2--|-2--2--6--6--|-2--2--2--2--|-2--2--8--8--|
D|-4--4--4--4--|-4--4--7--7--|-4--4--4--4--|-4--4--9--9--| 
A|-4--4--4--4--|-4--4--7--7--|-4--4--4--4--|-4--4--9--9--|                 
E|-2--2--2--2--|-2--2--5--5--|-2--2--2--2--|-2--2--7--7--|
     M  M  M  M    M  M  M  M    M  M  M  M    M  M  M  M
1. kitara (distorzija + tremolo + pitch shifter)
e|------------------------------------------------------|
H|------------------------------------------------------|
G|-/7-6-7-7/9--7---6-7-6-4v-----------------------------|  -- 2x
D|----------------------------7-6-7-6-4v--2--4----------|
A|---------------------------------------------4v-------|
E|------------------------------------------------------|
2. DEL (00:27 - 00:49) *************************************************************************
1. kitara (distorzija + pitch shifter)
e|---------------------------------------------------------|
H|---------------------------------------------------------|
G|-14----------14--16----------/14----\\-------------------|
D|-------14v-----------16v--\\-----------/14---14-16v---\\-|
A|---------------------------------------------------------|
E|---------------------------------------------------------|
e|-----------------------------------------------------------------------|
H|-----------------------------------------------------------------------|
G|------13--14v---16v---18v----16v-----14--13----------------------------|
D|-/16-----------------------------------------16v---14-/19--16v------\\-|
A|-----------------------------------------------------------------------|
E|-----------------------------------------------------------------------|
2. kitara (distorzija):
          2x
   A    Am   F#m        D    F    Hm       C#m  E    F#m
e|-5----5----2--------|-5----1----2--------4----0----2--------|
H|-5----5----2--------|-7----1----3--------5----0----2--------|
G|-6----5----2--------|-7----2----4--------6----1----2--------|
D|-7----7----4--------|-7----3----4--------6----2----4--------|
A|-7----7----4--------|-5----3----2--------4----2----4--------|
E|-5----5----2--------|------1------------------0----2--------|
3. DEL (00:49 - 01:11) *************************************************************************
1. kitara (distorzija)
e|------------------------------------------------------|
H|------------------------------------------------------|
G|-/7-6-7-7/9--7---6-7-6-4v-----------------------------|  -- 2x
D|----------------------------7-6-7-6-4v--2--4----------|
A|---------------------------------------------4v-----/-|
E|------------------------------------------------------|
2. kitara (distorzija):
   C#m         C#m  D      C#m         C#m  E      F#m         F#m  A      F#m         F#m  H
e|-9----9----|-9----10---|-9----9----|-9----7----|-2----2----|-2----5----|-2----2----|-2----7----|
H|-9----9----|-9----10---|-9----9----|-9----9----|-2----2----|-2----5----|-2----2----|-2----7----|
G|-9----9----|-9----11---|-9----9----|-9----9----|-2----2----|-2----6----|-2----2----|-2----8----|  -- 2x
D|-11---11---|-11---12---|-11---11---|-11---9----|-4----4----|-4----7----|-4----4----|-4----9----|
A|-11---11---|-11---12---|-11---11---|-11---7----|-4----4----|-4----7----|-4----4----|-4----9----|
E|-9----9----|-9----10---|-9----9----|-9---------|-2----2----|-2----5----|-2----2----|-2----7----|
     M    M      M    M      M    M      M    M      M    M      M    M      M    M      M    M
4. DEL (01:11 - 01:52) *************************************************************************
1. kitara (distorzija + pitch shifter)
e|---------------------------------------------------------|
H|---------------------------------------------------------|
G|-14----------14--16----------/14---14//------------------|
D|-------14v-----------16v--\\------------14---14-16v---\\-|
A|---------------------------------------------------------|
E|---------------------------------------------------------|
e|---------------------------------------------------------------------|
H|-------------------------------------------------/17v---\/19v-----\\-|
G|------13--14v---\/16v---\/18v----\/16v----18v---\--------------------|
D|-/16-----------------------------------------------------------------|
A|---------------------------------------------------------------------|
E|---------------------------------------------------------------------|
e|-------------------------------------------------------------------------|
H|-/19--17----------//22-\-17---17-19v----19--21--19br-17------------------|
G|----------18v---\----------------------------------------18v----16-14-13-|
D|-------------------------------------------------------------------------|
A|-------------------------------------------------------------------------|
E|-------------------------------------------------------------------------|
e|-----------------------------------------------------------------------|
H|-11----^^^^11^^^^-r11---^^^^11^^^^-------r---11^^^^-------r---11^^^b---|
G|------14---------------14-----------------14---------------14----------|
D|-----------------------------------------------------------------------|
A|-----------------------------------------------------------------------|
E|-----------------------------------------------------------------------|
2. kitara (distorzija):
          2x                                         2x                          4x
   A    Am   F#m        D    F    Hm         C#m  E    F#m        C#m  E      F#m  G
e|-5----5----2--------|-5----1----2--------|-4----0----2--------|-4----0----|-2----3----|
H|-5----5----2--------|-7----1----3--------|-5----0----2--------|-5----0----|-2----3----|
G|-6----5----2--------|-7----2----4--------|-6----1----2--------|-6----1----|-2----4----|
D|-7----7----4--------|-7----3----4--------|-6----2----4--------|-6----2----|-4----5----|
A|-7----7----4--------|-5----3----2--------|-4----2----4--------|-4----2----|-4----5----|
E|-5----5----2--------|------1-------------|------0----2--------|------0----|-2----3----|
5. DEL (01:52 - 02:14) *************************************************************************
1. kitara (distorzija + tremolo)
   E         Hm           E         Hm        E         Hm        E         H     C
e|---0-----------2-----------0------2---------0---------2---------0---------2-----------|
H|---0--------------3--------0------3---------0---------3---------0---------3-----------|
G|---1-----------------4-----1------4---------1---------4---------1---------4-----------|
D|----------------------------------4---------2---------4---------2---------4-----------|
A|-----------2----------------------2---------2---------2---------2---------2-----3--//-|
E|-0----------------------0-------------------0-------------------0---------------------|
2. kitara (distorzija):
                        3x
   E                       Hm                          E                       Hm          C
e|---------------------------------------------------|---------------------------------------------------|
H|---------------------------------------------------|---------------------------------------------------|
G|---------------------------------------------------|---------------------------------------------------|
D|---------------------------9-9---9-9---9-9---9-9---|---------------------------9-9---9-9---1010--1010--|
A|---7-7---7-7---7-7---7-7---------------------------|---7-7---7-7---7-7---7-7---------------------------|
E|---0-0---0-0---0-0---0-0---7-7---7-7---7-7---7-7---|---0-0---0-0---0-0---0-0---7-7---7-7---8-8---8-8---|
        M     M     M     M     M     M     M     M         M     M     M     M     M     M     M     M
6. DEL (02:14 - 02:47) *************************************************************************
1. kitara (distorzija + tremolo)
e|-----------------------------------14-\--------------------------------------|
H|-15-14-15-15/17--15--14-15-14-12v-------15-14-15-15/17--14--15--12---^r-^rv--|
G|-----------------------------------------------------------------------------|
D|-----------------------------------------------------------------------------|
A|-----------------------------------------------------------------------------|
E|-----------------------------------------------------------------------------|
e|-----------------------------------14-/--------------------------------------------------|
H|-15-14-15-15/17--15--14-15-14-12v-------15-14-15-15/17--14--15--12v--12-13v--13v--12v-\\-|
G|-----------------------------------------------------------------------------------------|
D|-----------------------------------------------------------------------------------------|
A|-----------------------------------------------------------------------------------------|
E|-----------------------------------------------------------------------------------------|
   E5  F5  A5  F5                          E
e|-----------------------------------------0-------|
H|-----------------------------------------0-------|
G|-----------------------------------------1-------|
D|-2---3---7---3---------------------------2-------|
A|-2---3---7---3---------2-----------3-----2-------|
E|-0---1---5---1---0--1-----1--0--1-----1--0-------|
2. kitara (distorzija):
   Hm                          E
e|---------------------------------------------------------|
H|---------------------------------------------------------|
G|---------------------------------------------------------|
D|-9--9-9-9--9-9-9--9-9-9--9-9-----------------------------|
A|-----------------------------7--7-7-7--7-7-7--7-7-7--7-7-|
E|-7--7-7-7--7-7-7--7-7-7--7-7-0--0-0-0--0-0-0--0-0-0--0-0-|
   Hm                          E5     F5     C5     H5
e|---------------------------------------------------------|
H|---------------------------------------------------------|
G|-------------------------------------------5------7------|
D|-9--9-9-9--9-9-9--9-9-9--9-9-2------3------5------7------|
A|-----------------------------2------3------3------2------|
E|-7--7-7-7--7-7-7--7-7-7--7-7-0------1--------------------|
   E5   F5   A5   F5                           E
e|---------------------------------------------0-------|
H|---------------------------------------------0-------|
G|---------------------------------------------1-------|
D|---------------------------------------------2-------|
A|---------------------------2-----------3-----2-------|
E|-12\--12\--12\--12\--0--1-----1--0--1-----1--0-------|
7. DEL (02:47 - 03:20) *************************************************************************
1. kitara (clean):
e|-------------12-12-------|
H|-------12-12-------12-12-|
G|-14-14-------------------|  -- se ponavlja
D|-------------------------|
A|-------------------------|
E|-------------------------|
2. kitara (clean):
   A
e|-----0----------------|
H|----2-----------------|
G|---2------------------|
D|--2-------------------|
A|-0--------------------|
E|----------------------|
1. kitara (clean):
Ta del igramo s prsti in ne s trzalico! Za D struno uporabimo kazalec, za G struno
pa sredinec. Tone s prstoma 'hkrati' dušimo in ubiramo. Tone nad katerimi je 'P'
poudarimo.
e|-------------------------------------------------|
H|-------------------------------------------------|
G|-13-13-13-13-13-13-13-13-13-13-13-13-14-14-14-14-|
D|-11-11-11-11-11-11-11-11-11-11-11-11-12-12-12-12-|
A|-P--------P--------P--------P--------P-----------|
E|-------------------------------------------------|
e|-------------------------------------------------|
H|-------------------------------------------------|
G|-13-13-13-13-13-13-13-13-13-13-13-13-16-16-16-16-|
D|-11-11-11-11-11-11-11-11-11-11-11-11-14-14-14-14-|
A|-P--------P--------P--------P--------P-----------|
E|-------------------------------------------------|
e|-------------------------------------------------|
H|-------------------------------------------------|
G|-18-18-18-18-18-18-18-18-18-18-18-18-16-16-16-16-|
D|-16-16-16-16-16-16-16-16-16-16-16-16-14-14-14-14-|
A|-P--------P--------P--------P--------P-----------|
E|-------------------------------------------------|
e|-------------------------------------------------|
H|-------------------------------------------------|
G|-18-18-18-18-18-18-18-18-18-18-18-18-18\\--------|
D|-16-16-16-16-16-16-16-16-16-16-16-16-16\\--------|
A|-P--------P--------P--------P--------P-----------|
E|-------------------------------------------------|
8. DEL (03:20 - ) *************************************************************************
1. kitara (clean):
   A      Am     F#m         Distorzija
e|-555----555----222--------|-----------|
H|-555----555----222--------|-----------|
G|-666----555----222--------|-----------|
D|-777----777----444--------|-----------|
A|-777----777----444--------|-----------|
E|-555----555----222--------|-17\\\-----|
2. kitara (distorzija):
   A    Am   F#m
e|-5----5----2--------|
H|-5----5----2--------|
G|-6----5----2--------|
D|-7----7----4--------|
A|-7----7----4--------|
E|-5----5----2--------|
1. kitara (distorzija + pitch shifter)
e|-------------------------------------------------------------|
H|-------------------------------------------------------------|
G|-14----------14--16----------/14---14//----------------------|
D|-------14v-----------16v--\\------------14---14-16-16-16-16\-|
A|-------------------------------------------------------------|
E|-------------------------------------------------------------|
e|-------------------------------------------------------------------|
H|-------------------------------------------------17v---/19v-----\\-|
G|------13--14v---\/16v---\/18v----\/16v----18v----------------------|
D|-/16---------------------------------------------------------------|
A|-------------------------------------------------------------------|
E|-------------------------------------------------------------------|
e|--------------------------------------------------------------------------------------------------|
H|-/19--17---------//22-\-17---17-19v----17------------------------17--------17^^^^-----17^^^^------|
G|----------18v-----------------------------18v---16-14-13-14-15--------15^^^^-----15^^^b-----------|
D|--------------------------------------------------------------------------------------------------|
A|--------------------------------------------------------------------------------------------------|
E|--------------------------------------------------------------------------------------------------|
2. kitara (distorzija):
          2x
   A    Am   F#m        D    F    Hm         C#m  E    F#m        C#m  E    F#m  C#m  E    F#
e|-5----5----2--------|-5----1----2--------|-4----0----2--------|-4----0----2----4----0----2-----------|
H|-5----5----2--------|-7----1----3--------|-5----0----2--------|-5----0----2----5----0----2-----------|
G|-6----5----2--------|-7----2----4--------|-6----1----2--------|-6----1----2----6----1----3-----------|
D|-7----7----4--------|-7----3----4--------|-6----2----4--------|-6----2----4----6----2----4-----------|
A|-7----7----4--------|-5----3----2--------|-4----2----4--------|-4----2----4----4----2----4-----------|
E|-5----5----2--------|------1-------------|------0----2--------|------0----2---------0----2-----------|

trzalica bartrzalica bar

Pesem je naložil

AliAs

Deli z drugimi

Vaš e-naslov ne bo objavljen. * označuje zahtevana polja