Kje imaš kitaro in trzalico? Besedilo in akordi so spodaj :-)

[[ DISCLAIMER ]]

Izvajalec: ........... Big Foot Mama
Naslov: .............. Garbič (Hip hop med nogami)
Album: ............... Kaj se dogaja?
Leto ................. 1997
________________________________________________________

Transkripcijo izdelal: .... Andraž Mehle [F(r)iend]
E-mail: ................... a.satellite@gmail.com

Vrsta transkripcije: ...... besedilo z akordi + tablatura
Domača stran: ............. www.trzalica.com
================================================================================================
Uporabljeni akordi:

Em A  D  Em*
e|-7--5--5--0--------------------|
B|-8--5--7--0--------------------|
G|-9--6--7--0--------------------|
D|-9--7--7--2--------------------|
A|-7--7--5--2--------------------|
E|----5-----0--------------------|

Akordi v refrenu:
G  D  Am Em*G5 D5 A5 E5
e|-3--2--0--0--------------------|
B|-0--3--1--0--------------------|
G|-0--2--2--0-----7-----9--------|
D|-0--0--2--2--5--7--7--9--------|
A|-2-----0--2--5--5--7--7--------|
E|-3--------0--3-----5-----------|

Uvod:

Prva kitara:
Em, A, D, Em* (2x, potem pride še 2. kitara)
Skupaj z drugo kitaro še 2x!

2. Kitara:

e|-12-12-15-15-15-15-12--12-12-12-15-15--15-12-10-------
B|-12-12-12-12-12-12-12--12-12-12-12-12--12-12-10b12*---
G|-------12-12-12-12-12--12-12-12-12-12--12-12----------
D|------------------------------------------------------
A|------------------------------------------------------
E|------------------------------------------------------
*tu potem ene 12x tole bend-a in hkrati seka še po prvi struni na 10. polju
10b12 pomeni bend za en ton.

----------------------------------------------|
-10-12----------------------------------------|
----12-12-12-12-12----------------------------|
-------14-12-14-14----------------------------|
--------------------12-10-12-10---------------|
--------------------------------12-10-12~-----|

Em             A      D           Em*
Všeč si mi, k' hod'š, všeč k' govoriš
Em           A     D  Em*
Všeč so mi poteze vse, k' jih nardiš
Em   A      D   Em*
Mikajo me noge, mika me telo
Em              A       D           Em*
Nor sem na štrumpantle in svilen blago

Refren:
G         D
GARBIČ HIP HOP MED NOGAMI
Am         Em*
GARBIČ HIP HOP

Bridge: Em, A, D, Em*
Druga kitara igra podobno kot v uvodu.

Plavu bi čez morje, plezu na drevo
Lohk' bi ti pokazu, kje je plau nebo
Dostkrat se sprašujem, dostkrat mi ni prou
Zakaj me ne pogledaš, mogoče ti bo žou!

Refren: (4x)
G         D
GARBIČ HIP HOP MED NOGAMI
Am         Em*
GARBIČ HIP HOP

Druga kitara v refrenu igra:
G5, D5, A5, E5

Bridge: Em, A, D, Em*

Sanjam, da ti prste zapletem med lase
Sanjam, da ti jezik prlep'm na zobe
Hotu bi te gledat, hotu bi te 'met
Raztrgu bi obleko, vzel bi ves tvoj med

Refren: (4x)
G         D
GARBIČ HIP HOP MED NOGAMI
Am         Em*
GARBIČ HIP HOP

Druga kitara: G5, D5, A5, E5

Solo: G5, D5, A5, E5 (4x)

Refren: (4x)
G         D
GARBIČ HIP HOP MED NOGAMI
Am         Em*
GARBIČ HIP HOP

Druga kitara: G5, D5, A5, E5

trzalica bar

trzalica bar

Pesem je naložil

F(r)iend

Deli z drugimi

Vaš e-naslov ne bo objavljen. * označuje zahtevana polja