Kje imaš kitaro in trzalico? Besedilo in akordi so spodaj :-)

[[ DISCLAIMER ]]

 _______________________________________
|                                       |
| IZVAJALEC: ........... Srečna mladina |
| PESEM: ..................... Gen genu |
| ALBUM: ..... Listen to Srečna mladina |
|_______________________________________|
|                                       |
|   Tablatura                           |
|   Transkripcija: AliAs                |
|   Domača stran: Trzalica.com          |
|_______________________________________|
LEGENDA:
  × = palm muted - narahlo zaduši strune
  ~ = let ring - strune pusti zveneti
  / = slide up
  \ = slide down
  v = vibrated
 ^ˇ = bend up / release (za 1/4 tona)
b r = bend up / release (za 1/2 tona)
f r = full bend up / Release (za cel ton)
C2  = X-X-10-9-8-8
Em2 = X-X-9-9-8-7
G   = 3-2-0-0-0-3
Em  = 0-2-2-0-0-0
e|-------------------------------------------------------------------|
H|-------------------------------------------------------------------|
G|-11-9--9--9-11-9--9--9-8--9--11-12---11-11-11-11-1112--12--12-11---|  --3x
D|-------------------------------------------------------------------|
A|-9--7--7--7-9--7--7--7-6--7--9--10---9--9--9--9--9-10--10--10-9----|
E|-------------------------------------------------------------------|
e|---------------------------------------------------------------------|
H|---------------------------------------------------------------------|
G|-11-9--9--9-11-9--9--9-8--9--11-12---11-11-11-11-1112--12--12--------|
D|---------------------------------------------------------------------|
A|-9--7--7--7-9--7--7--7-6--7--9--10---9--9--9--9--9-10--10--10--------|
E|--------------------------------------------------------------10-\-3-|
e|----------------------------------------------------------------------|
H|----------------------------------------------------------------------|
G|----------------------------------------------------------------------|  --3x
D|----------5-----------5-----------------------------------------------|
A|----3-----------3-----------3-----5-----7-----6v------7v------6-^ˇ----|
E|-3-----3-----3-----3-----3-----3-----0-----0-------0-------0----------|
   ×     ×     ×     ×     ×     ×     ×     ×       ×       ×
e|----------------------------------------------------------------------|
H|----------------------------------------------------------------------|
G|----------------------------------------------------------------------|
D|----------5-----------5-----------------------------------------------|
A|----3-----------3-----------3-----5-----7-----6v------7v------6-\-----|
E|-3-----3-----3-----3-----3-----3-----0-----0-------0-------0----------|
   ×     ×     ×     ×     ×     ×     ×     ×       ×       ×
e|-------------------------------------------------------------------|
H|-------------------------------------------------------------------|
G|-11-9--9--9-11-9--9--9-8--9--11-12---11-11-11-11-1112--12--12-11---|
D|-------------------------------------------------------------------|
A|-9--7--7--7-9--7--7--7-6--7--9--10---9--9--9--9--9-10--10--10-9----|
E|-------------------------------------------------------------------|
e|---------------------------------------------------------------------|
H|---------------------------------------------------------------------|
G|-11-9--9--9-11-9--9--9-8--9--11-12---11-11-11-11-1112--12--12--------|
D|---------------------------------------------------------------------|
A|-9--7--7--7-9--7--7--7-6--7--9--10---9--9--9--9--9-10--10--10--------|
E|--------------------------------------------------------------10-\-3-|
        Pogled na zrcala...
e|----------------------------------------------------------------------|
H|----------------------------------------------------------------------|
G|----------------------------------------------------------------------|  --3x
D|----------5-----------5-----------------------------------------------|
A|----3-----------3-----------3-----5-----7-----6v------7v------6-^ˇ----|
E|-3-----3-----3-----3-----3-----3-----0-----0-------0-------0----------|
   ×     ×     ×     ×     ×     ×     ×     ×       ×       ×
e|----------------------------------------------------------------------|
H|----------------------------------------------------------------------|
G|----------------------------------------------------------------------|
D|----------5-----------5-----------------------------------------------|
A|----3-----------3-----------3-----5-----7-----6v------7v------6-\-----|
E|-3-----3-----3-----3-----3-----3-----0-----0-------0-------0----------|
   ×     ×     ×     ×     ×     ×     ×     ×       ×       ×
e|-------------------|
H|-------------------|
G|-------------------|  --2x
D|-5-----4--3--2-----|
A|-5-----4--3--2-----|
E|-3-----2--1--0-----|
e|--------------------------------------------------------------------------|
H|--------------------------------------------------------------------------|
G|--------------4-----------------------------------------------------------|
D|-7------3-----4-----4--3--2-----------------------------------------------|
A|-7------3-----2-----4--3--2-----------------------------------------------|
E|-5------1-----------2--1--0-----------------------------------------------|    \
                             ~~~~~~~~~~~~~~~~~~~~~~~~~~~~~~~~~~~~~~~~~~~~~~~      \
                                                                                   \
e|------------------------|--------7-------|                                        \
H|------------------------|----------------|                                         |
G|------------------------|----9------9----|  -- druga kitara 4x (clean), medtem ko  |
D|------------------------|-------------9--|     zveni E5 - prva kitara -------------/
A|------------------------|-7---7----------|
E|------------------------|----------------|
e|-------------------------------------------------------------------|
H|-------------------------------------------------------------------|
G|-11-9--9--9-11-9--9--9-8--9--11-12---11-11-11-11-1112--12--12-11---|
D|-------------------------------------------------------------------|
A|-9--7--7--7-9--7--7--7-6--7--9--10---9--9--9--9--9-10--10--10-9----|
E|-------------------------------------------------------------------|
e|----------------------------------------------------------------------|
H|----------------------------------------------------------------------|
G|-11-9--9--9-11-9--9--9-8--9--11-12---11-11-11-11-1112--12--12-12-\----|
D|----------------------------------------------------------------------|
A|-9--7--7--7-9--7--7--7-6--7--9--10---9--9--9--9--9-10--10--10-10-\----|
E|----------------------------------------------------------------------|
        Barve negujejo biserne oči.....
        (C2  Em2)  4x
                        --------------------\
        Dihaj, poslušaj in glej.....         \
e|-------------------|                       |
H|-------------------|                       |
G|-------------------|  --2x                 |
D|-5-----4--3--2-----|                       |
A|-5-----4--3--2-----|                       |
E|-3-----2--1--0-----|                       |__  2x
                                             |
e|--------------------------------|          |
H|--------------------------------|          |
G|--------------4-----------------|          |
D|-7------3-----4-----4--3--2-----|          |
A|-7------3-----2-----4--3--2-----|          |
E|-5------1-----------2--1--0-----|          /
                      ----------------------/
        (Gm  Em)  2x
SOLO:
e|----------------------------------------------------------------------------------------|
H|---------------------12---10-12----------12br-13-15v---15f-r-17---19b-r-17--15f--r\12---|
G|-/12---11-12-14v----------------11b--r--------------------------------------------------|
D|----------------------------------------------------------------------------------------|
A|----------------------------------------------------------------------------------------|
E|----------------------------------------------------------------------------------------|
e|-18b---17-------------18b---22-19-17-19----19b-r--17-19b-r------------------------|
H|----------20-19-b-17----------------------------------------20fr-19-b-17---b------|
G|----------------------------------------------------------------------------------|
D|----------------------------------------------------------------------------------|
A|----------------------------------------------------------------------------------|
E|----------------------------------------------------------------------------------|
        G
        Z razumom sprejemam, z obstojem negujem, se vsem zahvaljujem z vestjo.
        Em
        Z genom dobivam in z duhom premešam, prenesem z mesa na telo.

trzalica bartrzalica bar

Pesem je naložil

AliAs

Deli z drugimi

Vaš e-naslov ne bo objavljen. * označuje zahtevana polja