Kje imaš kitaro in trzalico? Besedilo in akordi so spodaj :-)

[[ DISCLAIMER ]]

Besedila in akordi na TrzaliciOglej si še: [zn2] Dobre vile na forumu
besedilo z akordi   Hvala za vijolice
besedilo z akordi   Hvala za vijolice - acoustic (kitara: Marko Zaletelj)
   Hvala za vijolice (gp)
videolekcija videolekcija - Hvala za vijolice

trzalica bar

Bilbi - Hvala za vijolice
=========================

e|--11/12--12-12--11/12-12-12--11/12--12---11/12--|
H|--11/12--12-12--11/12-12-12--11/12--12---11/12--|
G|------------------------------------------------|
D|------------------------------------------------|
A|------------------------------------------------|
E|------------------------------------------------|

Am7         E7      Am7
Ta tvoja žena mi je že      prijatelj' ca
E7      Am7
ne vem, če ne bi ji kar vse     pove ...dala

Dm          C       G
da skupaj šmirava odkar  tvoj  mali   Jan
Dm          C       G
v vrtcu       je vsak dan.

Ko prvič prišel si skoz’ vrata nasmejan,
prevzel me je občutek – vse lahko ti dam,

zdelo se mi je, da pač tak’ si strašno sam,
da rabiš nežno dlan.

Am     Ammaj7  Am7  Ammaj7
Hvala  za    vijolice
Dm     Dmmaj7  Dm7  Dm6
torbe, čevlje, vrtnice,
G
vse parfume, ogrlice.
C
Kaj pa tvoje srce?
E     E7
Kaj pa tvoje ime?

Hvala za počitnice
in prekratke vikende,
verze mal’ pocukrane.
Kaj pa tvoje srce?
Kaj pa tvoje ime?

Am

e|--8--8--8---10---12-12--10--8----8-8----------------|
H|--10-10-10--12---13-13--12--10---1010---------------|
G|-------------------------------------9--------------|
D|----------------------------------------------------|      |
A|----------------------------------------------------|      |
E|----------------------------------------------------|      |
|
Dm                                                       |
|
e|--14/15--15-15---14/15--15-15---14/15--15-----------|      |
H|--14/15--15-15---14/15--15-15---14/15--15-----------|      |
G|----------------------------------------------------|       _ 2X
D|----------------------------------------------------|       /
A|----------------------------------------------------|      |
E|----------------------------------------------------|      |
|
G                         C              E    E7         |
|
e|--15-15-15-15---15-15-15----16-16-16-16---16-16-16--|      |
H|--17-17-15-17---17-17-17----17-17-15-17---17-17-17--|      |
G|----------------------------------------------------|      |
D|----------------------------------------------------|     /
A|----------------------------------------------------|    /
E|----------------------------------------------------|   /

Postala sem čisto ta prava ljubica,
kar dolgo časa nisem se zavedala,
potem obljubljal si mi, da boš jo pustil,
da boš se preselil.

Ne upam ti pokazat, da mi je hudo,
ker vse, kar primeš, ljubi, pade ti iz rok,
ker zadnje čase nič več nisi nasmejan,
z menoj si zadržan.

Hvala za vijolice,
torbe, čevlje, vrtnice,
vse parfume, ogrlice.
Kaj pa tvoje srce?
Kaj pa tvoje ime?

Hvala za počitnice
in prekratke vikende,
verze mal’ pocukrane.
Kaj pa tvoje srce?
Kaj pa tvoje ime?

====================================
Zapisal: stefanguitar & NoMAD / 2014

trzalica bar

trzalica bar

Pesem je naložil

stefanguitar

Deli z drugimi

Vaš e-naslov ne bo objavljen. * označuje zahtevana polja