Kje imaš kitaro in trzalico? Besedilo in akordi so spodaj :-)

[[ DISCLAIMER ]]

 _______________________________________________
|                                               |
| IZVAJALEC: ................... Srečna mladina |
| PESEM: .... I have one peasant in Switzerland |
| ALBUM: ............. Listen to Srečna mladina |
|_______________________________________________|
|                                               |
|    Tablatura                                  |
|    Transkripcija: AliAs                       |
|    Domača stran: Trzalica.com                 |
|_______________________________________________|
LEGENDA:
  M = MUTE - zaduši strune
  X = Z levo roko zaduši struno
 ...= nadaljevanje, ponavljanje
  / = slide up
  \ = slide down
  ¤ = naravni harmoniki
V tabulaturi sem pesem zaradi lažje orientacije razdelil na 6 delov.
Deli so med seboj ločeni takole: X. DEL****************
V pesmi so poleg bas kitare uporabljene tri kitare (ena akustična in dve električni) in za
vse tri so napisane tudi tabulature.
        1. kitara = akustična kitara (oba zvočnika ali pa desni zvočnik)
        2. kitara = električna kitara (levi zvočnik)
        3. kitara = električna kitara (desni zvočnik)
Ko se boste učili pesem igrati po tabulaturi, priporočam, da jo predvajate z računalnikom,
npr. s programom Winamp, s katerim lahko nastavljate ravnovesje glasnosti levega ali desnega
zvočnika – Tako lahko poslušate samo tisto, kar je na levem ali pa desnem zvočniku (ker enega
utišate) – ko npr. balance gumb prestavite popolnma v levo, slišite samo levi zvočnik – 
v tabulaturi (na desni strani) pa vidite, da je v levem zvočniku pretežno kitara 2. Tako se
bolj razločno sliši posamezna kitara ker druga ne moti poslušanja le te.
Pri vsakem delu v tabulaturi naprej poglejte, kaj piše na desni strani – katera kitara je
na katerem od zvočnikov, in nato primerno nastavite ravnovesje na tisto stran, na kateri se
sliši željena kitara.
        1. DEL***********************************************************************************
   Am
e|-8--8--8--8--|
H|-10-10-10-10-|  --> strumanje navzdol
G|-9--9--9--9--|  1. kitara (oba zvočnika)
D|-7--7--7--7--|
A|-------------|  Se ponavlja
E|-------------|
e|-------------------------12----------------------|
H|----12-13-12-13/15-13-15----15-13-12-13-12-------|
G|-14----------------------------------------14-12-|  2. kitara (levi zvočnik)
D|-------------------------------------------------|
A|-------------------------------------------------|  12x
E|-------------------------------------------------|
e|----12-------------------------------------------|
H|----------13----15----12----13----------12-------|
G|----------------------------------14-------14-12-|  3. kitara (desni zvočnik)
D|-------------------------------------------------|
A|-------------------------------------------------|  Od 6. ponovitve 2. kitare -> 6x
E|-------------------------------------------------|
        2. DEL***********************************************************************************
   |-------7x-------|          |-------8x-------|
e|---------------------------------------------------|
H|---------10-10------------10---------10-10---------|
G|-----9-9-------9-9-----9---------9-9-------9-9-----|  1. kitara (desni zvočnik)
D|-10----------------10--------10----------------10--|
A|---------------------------------------------------|
E|---------------------------------------------------|
e|-12-12-12-12-12-12-12-12-12-12-12-12-12-12-12-12-10-10-10-10-10-10-10-10-
H|-------------------------------------------------------------------------
G|-------------------------------------------------------------------------
D|-------------------------------------------------------------------------
A|-------------------------------------------------------------------------
E|-------------------------------------------------------------------------
-8-8-8-8-8-8-8-8-8-8-8-8-8-8-8-8-7-7-7-7-7-7-7-7-5-5-5-5-5-5-5-5-5-5-5-5-5-5-|
-----------------------------------------------------------------------------|
-----------------------------------------------------------------------------|  2. kitara (levi zvočnik)
-----------------------------------------------------------------------------|  2x
-----------------------------------------------------------------------------|
-----------------------------------------------------------------------------|
e|-------------------------8-8-8-8-8-8-8-8-----------------------------------------------------------------
H|-10-10-10-10-10-10-10-10-----------------8-8-8-8-8-8-8-8-10-10-10-10-10-10-10-10-10-10-10-10-10-10-10-10-
G|---------------------------------------------------------------------------------------------------------
D|---------------------------------------------------------------------------------------------------------
A|---------------------------------------------------------------------------------------------------------
E|---------------------------------------------------------------------------------------------------------
---------------------------------------------|
-6-6-6-6-6-6-6-6-5-5-5-5-5-5-5-5-5-5-5-5-5-5-|
---------------------------------------------|  3. kitara (desni zvočnik)
---------------------------------------------|  2x
---------------------------------------------|
---------------------------------------------|
        3. DEL***********************************************************************************
   Am
e|-8--8--8--8--|
H|-10-10-10-10-|  --> strumanje navzdol
G|-9--9--9--9--|  1. kitara (oba zvočnika)
D|-7--7--7--7--|
A|-------------|  Se ponavlja
E|-------------|
e|-------------------------12----------------------|
H|----12-13-12-13/15-13-15----15-13-12-13-12-------|
G|-14----------------------------------------14-12-|  2. kitara (levi zvočnik)
D|-------------------------------------------------|
A|-------------------------------------------------|  4x
E|-------------------------------------------------|
e|----12-------------------------------------------|
H|----------13----15----12----13----------12-------|
G|----------------------------------14-------14-12-|  3. kitara (desni zvočnik)
D|-------------------------------------------------|
A|-------------------------------------------------|  4x
E|-------------------------------------------------|
e|-X-X-X-X-X-X-X-X-|
H|-X-X-X-X-X-X-X-X-|
G|-X-X-X-X-X-X-X-X-|  2. kitara (levi zvočnik)
D|-X-X-X-X-X-X-X-X-|  Z levo roko dušiš strune in hkrati ''potuješ''
A|-X-X-X-X-X-X-X-X-|  od trupa do glave.
E|-X-X-X-X-X-X-X-X-|
e|-----------------|
H|---------12------|
G|---------12------|  3. kitara (desni zvočnik)
D|-----------------|
A|-----------------|
E|-----------------|
           ¤
   Am
e|-8--8--8--8--|
H|-10-10-10-10-|  --> strumanje navzdol
G|-9--9--9--9--|  1. kitara (oba zvočnika)
D|-7--7--7--7--|
A|-------------|  Se ponavlja
E|-------------|
e|-------------------------12----------------------|
H|----12-13-12-13/15-13-15----15-13-12-13-12-------|
G|-14----------------------------------------14-12-|  2. kitara (levi zvočnik)
D|-------------------------------------------------|
A|-------------------------------------------------|  4x
E|-------------------------------------------------|
e|----12-------------------------------------------|
H|----------13----15----12----13----------12-------|
G|----------------------------------14-------14-12-|  3. kitara (desni zvočnik)
D|-------------------------------------------------|
A|-------------------------------------------------|  4x
E|-------------------------------------------------|
        4. DEL***********************************************************************************
                                                                     |>poljubni slide-i
e|-----------18\-------------------------------------------------------------|
H|-10\--/15--------/10---10\--/15---10\--/10---10\--/10----10\--/10---\/\/\/-|
G|---------------------------------------------------------------------------|  2. kitara (levi zvočnik)
D|---------------------------------------------------------------------------|
A|---------------------------------------------------------------------------|
E|---------------------------------------------------------------------------|
e|-----10------8-------10--------8---------------------------------------|
H|/10-----/10-----/10------/10------/17--19--/15--17--/17--19---/15v-----|
G|-----------------------------------------------------------------------|  3. kitara (desni zvočnik)
D|-----------------------------------------------------------------------|
A|-----------------------------------------------------------------------|
E|-----------------------------------------------------------------------|
        5. DEL***********************************************************************************
   |-------7x-------|          |-------8x-------|
e|---------------------------------------------------|
H|---------10-10------------10---------10-10---------|
G|-----9-9-------9-9-----9---------9-9-------9-9-----|  1. kitara (desni zvočnik)
D|-10----------------10--------10----------------10--|
A|---------------------------------------------------|
E|---------------------------------------------------|
e|-12-12-12-12-12-12-12-12-12-12-12-12-12-12-12-12-10-10-10-10-10-10-10-10-
H|-------------------------------------------------------------------------
G|-------------------------------------------------------------------------
D|-------------------------------------------------------------------------
A|-------------------------------------------------------------------------
E|-------------------------------------------------------------------------
-8-8-8-8-8-8-8-8-8-8-8-8-8-8-8-8-7-7-7-7-7-7-7-7-5-5-5-5-5-5-5-5-5-5-5-5-5-5-|
-----------------------------------------------------------------------------|
-----------------------------------------------------------------------------|  2. kitara (levi zvočnik)
-----------------------------------------------------------------------------|  2x
-----------------------------------------------------------------------------|
-----------------------------------------------------------------------------|
e|-------------------------8-8-8-8-8-8-8-8-----------------------------------------------------------------
H|-10-10-10-10-10-10-10-10-----------------8-8-8-8-8-8-8-8-10-10-10-10-10-10-10-10-10-10-10-10-10-10-10-10-
G|---------------------------------------------------------------------------------------------------------
D|---------------------------------------------------------------------------------------------------------
A|---------------------------------------------------------------------------------------------------------
E|---------------------------------------------------------------------------------------------------------
---------------------------------------------|
-6-6-6-6-6-6-6-6-5-5-5-5-5-5-5-5-5-5-5-5-5-5-|
---------------------------------------------|  3. kitara (desni zvočnik)
---------------------------------------------|  2x
---------------------------------------------|
---------------------------------------------|
        6. DEL***********************************************************************************
e|-7-----7-----7---8-----10-----12----5-----5-----5---7-----7-----7----
H|---8-----8-----8---8------8-----------7-----7-----7---7-----7--------
G|-----9-----9---------9------9-----------6-----6---------7-----7------
D|---------------------------------------------------------------------
A|---------------------------------------------------------------------
E|---------------------------------------------------------------------
-3-----3------3---5-----5-----5----0-----0-----0---2-----0-5-2------|
---5-----5------5---5-----5-----5----4-----4-----4---4---------4----|
-----3------3---------3-----3----------4-----4---------4---------4--|  2. kitara (levi zvočnik)
--------------------------------------------------------------------|
--------------------------------------------------------------------|  2x
--------------------------------------------------------------------|
e|-7-----7-----7---8-----10-----12----5-----5-----5---7-----7-----7----
H|---8-----8-----8---8------8-----------7-----7-----7---7-----7--------
G|-----9-----9---------9------9-----------6-----6---------7-----7------
D|---------------------------------------------------------------------
A|---------------------------------------------------------------------
E|---------------------------------------------------------------------
-3-----3------3---5-----5-----5----0-----0-----0---2-----0-5-2-----2-----0-5-2-----2-----0-5-2-----0------|
---5-----5------5---5-----5-----5----4-----4-----4---4---------4-----4---------4-----4---------4----------|
-----3------3---------3-----3----------4-----4---------4---------4-----4---------4-----4---------4--------|
----------------------------------------------------------------------------------------------------------|
----------------------------------------------------------------------------------------------------------|
----------------------------------------------------------------------------------------------------------|
e|-X-X-X-X-X-X-7-8-|
H|-X-X-X-X-X-X-----|
G|-X-X-X-X-X-X-----|
D|-X-X-X-X-X-X-----|
A|-X-X-X-X-X-X-----|
E|-X-X-X-X-X-X-----|
e|------12--------------------------------------------------12--------|
H|------12--------12----12-------------------7----12------------------|
G|-----------7----12-------12-----12---7------------------------------|  3. kitara (desni zvočnik)
D|--------------------------------------------------------------------|
A|--------------------------------------------------------------------|  začne ob tretji ponovitvi kitare 2
E|-12-----------------------------------------------------------------|
   ¤    ¤    ¤    ¤     ¤  ¤      ¤    ¤     ¤    ¤         ¤
e|-X-X-X-X-X-X-X-X-|
H|-X-X-X-X-X-X-X-X-|
G|-X-X-X-X-X-X-X-X-|
D|-X-X-X-X-X-X-X-X-|
A|-X-X-X-X-X-X-X-X-|
E|-X-X-X-X-X-X-X-X-|
        7. DEL***********************************************************************************
   |---- se ponavlja ----|
e|-7-----7-----7-----7-----7-|
H|---0-----0-----0-----0-----|
G|-----5-----5-----5-----5---|  1. kitara (oba zvočnika)
D|---------------------------|
A|---------------------------|
E|---------------------------|  slišna postane v drugi ponovitvi kitare 2.
e|----------------------------|
H|----------------------------|
G|----------------------------|  2. kitara (levi zvočnik)
D|-7------------9----/12------|
A|-0--------------------------|  3x
E|----------------------------|  začne ob drugi ponovitvi kitare 3.
e|-X-X-X-X-X-X...X-9-9-X-X-X-X-X...-|
H|-X-X-X-X-X-X...X-----X-X-X-X-X...-|
G|-X-X-X-X-X-X...X-----X-X-X-X-X...-|
D|-X-X-X-X-X-X...X-----X-X-X-X-X...-|
A|-X-X-X-X-X-X...X-----X-X-X-X-X...-|
E|-X-X-X-X-X-X...X-----X-X-X-X-X...-|
e|-------------------------|
H|-------------------------|
G|-------------------------|  3. kitara (desni zvočnik)
D|-------------------------|
A|-3-----6-----------------|  4x
E|--------------3----------|
e|-X-X-X-X-X-X-X-X-X-X-X-X-X-X...-|
H|-X-X-X-X-X-X-X-X-X-X-X-X-X-X...-|
G|-X-X-X-X-X-X-X-X-X-X-X-X-X-X...-|
D|-X-X-X-X-X-X-X-X-X-X-X-X-X-X...-|
A|-X-X-X-X-X-X-X-X-X-X-X-X-X-X...-|
E|-X-X-X-X-X-X-X-X-X-X-X-X-X-X...-|
        8. DEL***********************************************************************************
e|-------------------|
H|---------10-10-----|
G|-----9-9-------9-9-|  1. kitara (desni zvočnik)
D|-10----------------|
A|-------------------|  15x
E|-------------------|
   |---------2x-------||---------2x-------||---------2x-------||--------11x-------|
e|-----------------------------------------------------------------------10-10--------------| * Ta del se
H|-----------10-10---------------12-12---------------13-13----------------------------------| začne, kjer
G|-------9-9-------9-9-------9-9-------9-9-------9-9-------9-9-------9-9-------9-9----------| je pri kitari
D|-10-10---------------10-10---------------10-10---------------10-10---------------10--\----| 2. označeno
A|------------------------------------------------------------------------------------------|  z zvezdico.
E|------------------------------------------------------------------------------------------|
                                                               |                  |
                                                                \                /
                                                                 \              /
                                                                  \            /
                                                                   \__________/
                                                                         |
                                                     V zadnjih dveh ponovitvah gre čedalje počasneje.
e|-12-12-12-12-12-12-12-12-12-12-12-12-12-12-12-12-10-10-10-10-10-10-10-10-
H|-------------------------------------------------------------------------
G|-------------------------------------------------------------------------
D|-------------------------------------------------------------------------
A|-------------------------------------------------------------------------
E|-------------------------------------------------------------------------
-8-8-8-8-8-8-8-8-8-8-8-8-8-8-8-8-7-7-7-7-7-7-7-7-5-5-5-5-5-5-5-5-5-5-5-5-5-5-|
-----------------------------------------------------------------------------|
-----------------------------------------------------------------------------|  2. kitara (levi zvočnik)
-----------------------------------------------------------------------------|
-----------------------------------------------------------------------------|
-----------------------------------------------------------------------------|
    |---------------------3x-----------------------|                                                 
e|-/17-17-15-15-15-15-------17-17-15-15-------------------------------------------------------------|
H|--------------------17-17-------------17-17-17-17-18-18-17-17-15-15-18-18-17-17-17-17-17-17-17-17-|
G|--------------------------------------------------------------------------------------*-----------|
D|--------------------------------------------------------------------------------------------------|
A|--------------------------------------------------------------------------------------------------|
E|--------------------------------------------------------------------------------------------------|
   |----4x----||----4x----||----4x----||----4x----|                 |-> picking in hkrati slide down   
e|-17-17-------19-19-------20-20-------20-20-20-20-20202020202020...\\\-|
H|-------17-17-------17-17-------17-17----------------------------------|
G|----------------------------------------------------------------------|
D|----------------------------------------------------------------------|
A|----------------------------------------------------------------------|
E|----------------------------------------------------------------------|
e|------------------------------------------------------------------------------------------------------
H|-10/--13-13-13-13-13-13-13-13-------------------------------------------------------------------------
G|------------------------------12-12-12-12-12-12-12-12-12/14-14-14-14-14-14-14-14\10-10-10-10-10-10-10-
D|------------------------------------------------------------------------------------------------------
A|------------------------------------------------------------------------------------------------------
E|------------------------------------------------------------------------------------------------------
---------------------------------------------------------------------|
---------------------------------------------------------------------|
-10/12-12-12-12-12-12-12-12\9-9-9-9/10-10-10-10/12-12-12-12/14-14-14-|  3. kitara (desni zvočnik) 
---------------------------------------------------------------------|
---------------------------------------------------------------------|
---------------------------------------------------------------------|
e|-------------------------------------------------------------------------------------------------
H|-------------------------------------------------------------------------------------------------
G|-14-14-14-14-14-14-14-14-14-14-14-14-14-14-14-14-16-16-16-16-16-16-16-16-16-16-16-16-16-16-16-16-
D|-------------------------------------------------------------------------------------------------
A|-------------------------------------------------------------------------------------------------
E|-------------------------------------------------------------------------------------------------
-------------------------------------------------------------------------------------------------|
-------------------------------------------------------------------------------------------------|
-17-17-17-17-17-17-17-17-17-17-17-17-19-19-19-19-21-21-21-21-21-21-21-21-21-21-21-21-21-21-21-21-|
-------------------------------------------------------------------------------------------------|
-------------------------------------------------------------------------------------------------|
-------------------------------------------------------------------------------------------------|
                        |-> picking in hkrati slide down
e|---------------------------|
H|-22-22-22-22...22222222\\\-|
G|-21-21-21-21...21212121\\\-|
D|---------------------------|
A|---------------------------|
E|---------------------------|

trzalica posnetek bar

trzalica bar

Pesem je naložil

AliAs

Deli z drugimi

Vaš e-naslov ne bo objavljen. * označuje zahtevana polja