Kje imaš kitaro in trzalico? Besedilo in akordi so spodaj :-)

[[ DISCLAIMER ]]

 _________________________________________________________________________
|
| IZVAJALEC: .............. D-Fact
| PESEM: .................. Išče se novi Ali En
| ALBUM: .................. Fashion Victim
| LETO IZIDA: ............. 2005
|
| Transkripcija: AliAs (AKooSTeeKA) / april, 2021
|_________________________________________________________________________

Prava uglasitev kitar D-Factov je BEADGBE (ali pa 7 strunska kitara).
To tabulaturo sem napisal za standardno uglasitev!!!

LEGENDA:
× = dušenje z dlanjo
¤ = harmonični ton med 2. in 3. prečko

==========================================================================
Trzalica.COM besedila z akordi in kitarske tablature slovenskih izvajalcev
==========================================================================

UVOD:

e|---------------------------|---------|
B|---------------------------|---------|
G|---------------------------|---------|
D|-8--8-9--9-8--8-9--9-4--6--|-8-8-8-8-|
A|-6--6-7--7-6--6-7--7-2--4--|-6-6-6-6-|
E|-6--6-7--7-6--6-7--7-2--4--|-6-6-6-6-|

VERZ 1:
Išče se novi Ali, da se vsi ga bomo bali,...
e|------------------|------------------|
B|------------------|------------------|
G|------------------|------------------|
D|-8-8-8-8-8-8------|-9--9--6--6--9-6--|
A|-6-6-6-6-6-6------|-7--7--4--4--7-4--|
E|-6-6-6-6-6-6------|-7--7--4--4--7-4--|

Dej Ali nauči me kako se piše kritike...
e|-----------------|------------------|
B|-----------------|------------------|
G|-----------------|------------------|
D|-8-8-8-8-8-------|-9--9--6--6--9-6--|
A|-6-6-6-6-6-------|-7--7--4--4--7-4--|
E|-6-6-6-6-6-------|-7--7--4--4--7-4--|

2. kitara:
e|---------------------------------|---------------------------------|
B|---------------------------------|---------------------------------|
G|---------------------------------|---------------------------------|
D|-------8-8-8-------8-8-8-----8-8-|-------8-8-8-------8-8-8---------|
A|-6-6-6-------6-6-6-------6-6-----|-7-7-7-------4-4-4-------7-7-4-4-|
E|---------------------------------|---------------------------------|

REFREN 1:
...da zaprl bo usta vseeeeeeeeeeem...
e|---------------------------|
B|---------------------------|
G|---------------------------|
D|-8--8-9--9-8--8-9--9-4--6--|
A|-6--6-7--7-6--6-7--7-2--4--|
E|-6--6-7--7-6--6-7--7-2--4--|

Vsem, vsem, vsem...
e|-----------------------|
B|-----------------------|
G|-----------------------|
D|-8---9---8---9---4--6--|
A|-6---7---6---7---2--4--|
E|-6---7---6---7---2--4--|

VERZ 2:

Enako kot VERZ 1.

REFREN 2:

Enako kot REFREN 1.

Prehod v MOST:
e|-----------------------------------------|
B|-----------------------------------------|
G|-----------------------------------------|
D|-8---9---8---9------4---------4------4-4-|
A|-6---7---6---7---2--2------2--2------2-2-|
E|-6---7---6---7---2--2------2--2------2-2-|
                   ×         ×

MOST:
Kakšna je ta scena, kakšen je ta folk...
e|-----------------------------------|-----------------------------------|
B|-----------------------------------|-----------------------------------|
G|-----------------------------------|-----------------------------------|
D|-----------------------------------|-----------------------------------|
A|-------3p2--2--2-3p2--2--2-3p2--2--|-------3p2--2--2-3p2--2--2-2--3----|
E|-3---------------------------------|-3---------------------------------|
   ¤                                   ¤

REFREN 3:
Za vse ena sama beseda!

Sraanjeee!...
e|-----------------------|
B|-----------------------|
G|-8---9---8---9---4--6--|
D|-8---9---8---9---4--6--|
A|-6---7---6---7---2--4--|
E|-6---7---6---7---2--4--|

e|--------------------------------------|
B|--------------------------------------|
G|-8---9---8---9---4--6----4--6-----6-6-|
D|-8---9---8---9---4--6----4--6-----6-6-|
A|-6---7---6---7---2--4----2--4-----4-4-|
E|-6---7---6---7---2--4----2--4-----4-4-|

Pesem je naložil

AliAs

Deli z drugimi

Vaš e-naslov ne bo objavljen. * označuje zahtevana polja

VIDEO za igranje ob kitari