Kje imaš kitaro in trzalico? Besedilo in akordi so spodaj :-)

 

 Izvajalec: ................... Niet
 Skladba: ..................... Izobceni
 Avtor besedila: .............. ?
 Avtor glasbe: ................ ?
 Album: ....................... Lep Dan Za Smrt
 Leto izzida: ................. ?    
 Transkripcijo izdelal ........ bitedadust
 Vrsta transkripcije .......... bass tablatura
=========================================================================

4 string,standard tunning

Riff 1:

G|----------------------------|
D|----------------------------|
A|--4-4-4-0--2-2--5-5-5--0-2--|
E|----------------------------|

Riff 2:

G|-----------------|-------------------|
D|-----------------|-------------------|
A|--0-0--0-5-4-2-4-|--0-00-00-5-4-2-4--|
E|-----------------|-------------------|

Riff 3:

G|---------------------------------|
D|---------------------------------|
A|--0-0-0--5-5-5-5--4-4-4-4--2--4--|
E|---------------------------------|

Riff 4:

  V vrstah, v vrstah, v vrstah  izobcenih.
G|---------|---------|---------|---------|
D|---------|---------|---------|---------|
A|----5----|----4----|----2----|----4----|
E|---------|---------|---------|---------|

Song structure:
Intro (guitar only)
Riff 1....4x
Riff 2....2x
Riff 1....4x
Riff 3....8x
Riff 4....4x
Riff 1....4x
Riff 2....2x
Riff 1....4x

trzalica bartrzalica bar

 

 

 

Pesem je naložil

admin

Deli z drugimi

Vaš e-naslov ne bo objavljen. * označuje zahtevana polja