Kje imaš kitaro in trzalico? Besedilo in akordi so spodaj :-)

[[ DISCLAIMER ]]

Ostale verzije te pesmi:      Japan (tab) v1  

trzalica bar

 _______________________________________
|                                       |
| IZVAJALEC: ................ Siddharta |
| PESEM: ........................ Japan |
| ALBUM: .......................... Rh- |
|_______________________________________|
|                                       |
|   Transkripcija: AliAs                |
|   Domača stran: Trzalica.com          |
|_______________________________________|
LEGENDA:
M = MUTE
× = palm muted
\= slide down
UGLASITEV: D G C F A D (en ton nižje)
TRANSPONACIJA AKORDOV:
D G C F A D uglasitev ------------ standardna uglasitev 
 (navidezni prijemi)                  (pravi akordi)
                G   ---------------->   F
                A   ---------------->   G
                F#m ---------------->   Em
                Bm  ---------------->   Am
                Em  ---------------->   Dm
Tabulatura in (navidezni) akordi v besedilu, so napisani za en ton nižjo uglasitev - D G C F A D.
Za igranje po tabulaturi morate kitaro torej uglasiti za en ton nižje, če pa boste igrali samo
akorde na standardni uglasitvi, pa glejte zgornjo tabelo, ki prikazuje katere akorde je treba
prijeti namesto navideznih.
================================================================================================
INTRO:  (00:00 - 00:51)
D|-----------------------------------------------------------------|
A|-----------------------------------------------------------------|
F|-----------------------------------------------------------------|
C|-5-----5---------5-----5---------5-----5-------------------------|
G|-5-----5---------5-----5---------5-----5-------------------------|
D|-3-0-0-3-0-0-0-0-3-0-0-3-0-0-0-0-3-0-0-3-0-0-0-0-0-0-0-0-0-0-0-0-|
     ×××   ×××××××   ×××   ×××××××   ×××   ×××××××××××××××××××××××
D|-----------------------------------------------------------------|
A|-----------------------------------------------------------------|
F|-----------------------------------------------------------------|
C|-5-----5---------5-----5-----------2---4---5---------------------|
G|-5-----5---------5-----5-----------2---4---5---------------------|
D|-3-0-0-3-0-0-0-0-3-0-0-3-0-0-0-0-0-0-0-2-0-3-0-0-0-0-0-0-0-0-0-0-|
     ×××   ×××××××   ×××   ×××××××××   ×   ×   ×××××××××××××××××××
D|-----------------------------------------------------------------|
A|-----------------------------------------------------------------|
F|-----------------------------------------------------------------|
C|-5-----5---------5-----5---------5-----4---5---4-----------------|
G|-5-----5---------5-----5---------5-----4---5---4-----------------|
D|-3-0-0-3-0-0-0-0-3-0-0-3-0-0-0-0-3-0-0-2-0-3-0-2-0-0-0-0-0-0-0-0-|
     ×××   ×××××××   ×××   ×××××××   ×××   ×   ×   ×××××××××××××××
D|-----------------------------------------------------------------|
A|-----------------------------------------------------------------|
F|-----------------------------------------------------------------|
C|-5-----5---------5-----5---------2-----4---5-2-------------------|
G|-5-----5---------5-----5---------2-----4---5-2-------------------|
D|-3-0-0-3-0-0-0-0-3-0-0-3-0-0-0-0-0-0-0-2-0-3-0---0-0-0-0-0-0-2---|
     ×××   ×××××××   ×××   ×××××××   ×××   ×       ×××××××××××
D|-----------------------------------------------------------------|
A|-----------------------------------------------------------------|
F|-----------------------------------------------------------------|
C|-----------------------------------------------------------------|
G|-----------------------------------------------------------------|
D|-0-2-0-3---0---2-0-2-0-3---0---9-7-9-7-10---7---9-7-9-7-10---7---|
D|--------------------------------------------------------------------|
A|--------------------------------------------------------------------|
F|--------------------------------------------------------------------|
C|--------------------------------------------------------------------|
G|-----------------------------------------------------------------9\-|
D|-2-0-2-0-3---0---2-0-2-0-3---0---9-7-9-7-10---7---9-7-9-7-10---7----|
D|-----------------------------------------------------------------|
A|-----------------------------------------------------------------|
F|-----------------------------------------------------------------|
C|-----------------------------------------------------------------|
G|-----------------------------------------------------------------|
D|-0-2-0-3---0---2-0-2-0-3---0---9-7-9-7-10---7---9-7-9-7-10---7---|
D|------------------------------------------------------------------|
A|------------------------------------------------------------------|
F|------------------------------------------------------------------|
C|------------------------------------------------------------------|
G|------------------------------------------------------------------|
D|-2-0-2-0-3---0---2-0-2-0-3---0---9-7-9-7-10---7---9-7-9-7-10--9-7-|
VERZ 1:  (00:52 - 01:17)
         Em                           Bm
        Dom je vedno bolj oddaljen stran,
         Em                    Bm
        bela ptica nese me drugam.
          Em                       Bm
        Druge zvezde zdaj me grejejo,
          Em                     Bm
        hladno sonce naše je zašlo.
PRE-REFREN 1:  (01:17 - 01:29)
   G           A           F#m         Bm          G           A           F#m         G
D|-------------------------------------------------------------------------------------------------|
A|-------3-----------5-----------2-----------3-----------3-----------5-----------2-----------3-----|
F|----------4-----------6-----------2------4----4-----------4-----------6-----------2-----------4--|
C|-----5-----------7-----------4---------4-------------5-----------7-----------4-----------5-------|
G|---5-----------7-----------4---------2-------------5-----------7-----------4-----------5---------|
D|-3-----------5-----------2-----------------------3-----------5-----------2-----------3-----------|
                G       A
        Gledam ven v temo,
         F#m            Bm
        kaplje na okno padajo,
                 G                A
        ni me strah za jutrišnji dan,
         F#m          G
        to mora biti raj.
REFREN 1:  (01:30 - 01:43)
   G               A               F#m             Bm
D|-----------------------------------------------------------------|
A|-----------------------------------------------------------------|
F|-------------------------------------------------4-4-4-4-4-4-4-4-|
C|-5-5-5-5-5-5-5-5-7-7-7-7-7-7-7-7-4-4-4-4-4-4-4-4-4-4-4-4-4-4-4-4-|
G|-5-5-5-5-5-5-5-5-7-7-7-7-7-7-7-7-4-4-4-4-4-4-4-4-2-2-2-2-2-2-2-2-|
D|-3-3-3-3-3-3-3-3-5-5-5-5-5-5-5-5-2-2-2-2-2-2-2-2-----------------|
   G               A               F#m             G
D|------------------------------------------------------------------|
A|------------------------------------------------------------------|
F|------------------------------------------------------------------|
C|-5-5-5-5-5-5-5-5-7-7-7-7-7-7-7-7-4-4-4-4-4-4-4-4-5-5-5-5-5-5---5--|
G|-5-5-5-5-5-5-5-5-7-7-7-7-7-7-7-7-4-4-4-4-4-4-4-4-5-5-5-5-5-5------|
D|-3-3-3-3-3-3-3-3-5-5-5-5-5-5-5-5-2-2-2-2-2-2-2-2-3-3-3-3-3-3-3----|
                                                               ×   M
             G          A     F#m          Bm
        Bele iskre v nebo, v temi se vidi horizont,
             G          A   F#m          G
        in edinstven ocean se ga dotika tam.
VERZ 2:  (01:43 - 02:08)
   Em                              Bm
D|-------------------------------------------------------------------|
A|-------------------------------------------------------------------|
F|-------------------------------------------------------------------|  --4x
C|-------------------------------------------------------------------|
G|-----------2--------------------------------9----------------------|
D|-2-0-0-2-3---2-2-2-0-0-0-0-0-0-0-9-7-7-9-10---9-9-9-7-7-7-7-7-7-77-|
     ×××               ×××××××××××   ×××                ××××××××××××
          Em                    Bm
        Krona mehko sede na glavo,
         Em                       Bm
        nože smo odvrgli z radostjo,
          Em                     Bm
        vsak pogled v sebi nosi mir,
          Em                        Bm
        ples ob ognju naj prežene zver.
REFREN 2:  (02:09 - 02:21)
   G               A               F#m             Bm
D|-----------------------------------------------------------------|
A|-----------------------------------------------------------------|
F|-------------------------------------------------4-4-4-4-4-4-4-4-|
C|-5-5-5-5-5-5-5-5-7-7-7-7-7-7-7-7-4-4-4-4-4-4-4-4-4-4-4-4-4-4-4-4-|
G|-5-5-5-5-5-5-5-5-7-7-7-7-7-7-7-7-4-4-4-4-4-4-4-4-2-2-2-2-2-2-2-2-|
D|-3-3-3-3-3-3-3-3-5-5-5-5-5-5-5-5-2-2-2-2-2-2-2-2-----------------|
   G               A               F#m             G
D|------------------------------------------------------------------|
A|------------------------------------------------------------------|
F|------------------------------------------------------------------|
C|-5-5-5-5-5-5-5-5-7-7-7-7-7-7-7-7-4-4-4-4-4-4-4-4-5-5-5-5-5-5---5--|
G|-5-5-5-5-5-5-5-5-7-7-7-7-7-7-7-7-4-4-4-4-4-4-4-4-5-5-5-5-5-5------|
D|-3-3-3-3-3-3-3-3-5-5-5-5-5-5-5-5-2-2-2-2-2-2-2-2-3-3-3-3-3-3-3----|
                                                               ×   M
                     G          A     F#m          Bm
        Zletijo bele iskre v nebo, v temi se vidi horizont,
             G          A   F#m          G
        in edinstven ocean se ga dotika tam.
PRE-BRIDGE:  (02:23 - 02:34)
   G           A           F#m         Bm          G           A           F#m         G
D|-------------------------------------------------------------------------------------------------|
A|-------3-----------5-----------2-----------3-----------3-----------5-----------2-----------3-----|
F|----------4-----------6-----------2------4----4-----------4-----------6-----------2-----------4--|
C|-----5-----------7-----------4---------4-------------5-----------7-----------4-----------5-------|
G|---5-----------7-----------4---------2-------------5-----------7-----------4-----------5---------|
D|-3-----------5-----------2-----------------------3-----------5-----------2-----------3-----------|
                G       A
        Gledam ven v temo,
         F#m             Bm
        kaplje z okna izginejo,
                 G                A
        ni me strah za jutrišnji dan,
         F#m          G
        to mora biti raj.
                                           ________________________________________
BRIDGE:  (02:34 - 03:25)                     Hitro strumanje dol, gor, dol, gor. /
                                                 Vse tone dušimo z dlanjo.      /
Je raaaaaaaaaaaaaaaaaaaaaaa...                                                 /
D|-------------------------------------------------------------------------------------|
A|-------------------------------------------------------------------------------------|
F|-------------------------------------------------------------------------------------|
C|-------------------------------------------------------------------------------------|
G|-14-14-14-14-13-13-13-13-12-12-12-12-11-11-11-11-10-10-10-10-9-9-9-9-8-8-8-8-7-7-7-7-|
D|-12-12-12-12-11-11-11-11-10-10-10-10-9--9--9--9--8--8--8--8--7-7-7-7-6-6-6-6-5-5-5-5-|
...aaaaaaaaaaaaaaj
D|-----------------------------------------------------------------|
A|-----------------------------------------------------------------|
F|-----------------------------------------------------------------|
C|-5-----5-----5---5-----5---5---5-5-----5-----5---5-----5---5---5-|
G|-5-----5-----5---5-----5---5---5-5-----5-----5---5-----5---5---5-|
D|-3-0-0-3-0-0-3-0-3-0-0-3-0-3-0-3-3-0-0-3-0-0-3-0-3-0-0-3-0-3-0-3-|
     ×××   ×××   ×   ×××   ×   ×     ×××   ×××   ×   ×××   ×   ×
        Je raaaaaj, je raaaaaj, je raaaaaj, je raaaaaj.
D|-----------------------------------------------------------------|
A|-----------------------------------------------------------------|
F|-----------------------------------------------------------------|  --2x
C|-5-----5---------5-----5---------5-----4---5---4-----------------|
G|-5-----5---------5-----5---------5-----4---5---4-----------------|
D|-3-0-0-3-0-0-0-0-3-0-0-3-0-0-0-0-3-0-0-2-0-3-0-2-0-0-0-0-0-0-0-0-|
     ×××   ×××××××   ×××   ×××××××   ×××   ×   ×   ×××××××××××××××
          G            A           F#m    G
        Druge zvezde zdaj me grejejo,
          G           A          F#m    G
        hladno sonce naše je zašlo,
          G            A    F#m  G
        vsak pogled v sebi nosi mir,
          G            A      F#m   G     A    Bm
        ples ob ognju naj prežene zveeeeeeeeeeeeeeeeer.
   G               A               F#m             G
D|-----------------------------------------------------------------|
A|-----------------------------------------------------------------|
F|-----------------------------------------------------------------|  --2x
C|-----------------------------------------------------------------|
G|-5-5-5-5-5-5-5-5-7-7-7-7-7-7-7-7-4-4-4-4-4-4-4-4-5-5-5-5-5-5-5-5-|
D|-3-3-3-3-3-3-3-3-5-5-5-5-5-5-5-5-2-2-2-2-2-2-2-2-3-3-3-3-3-3-3-3-|
                                                                      \
   G               A       F#m     G                                   \
D|-----------------------------------------------------------------|    \
A|-----------------------------------------------------------------|     \
F|-----------------------------------------------------------------|      \
C|-----------------------------------------------------------------| ------) Vse tone dušimo
G|-5-5-5-5-5-5-5-5-7-7-7-7-4-4-4-4-5-5-5-5-5-5-5-5-5-5-5-5-5-5-5-5-|      /  z dlanjo.
D|-3-3-3-3-0-3-3-3-5-5-5-5-2-2-2-2-3-3-3-3-0-3-3-3-3-3-3-3-0-3-3-3-|     /
                                                                        /
   G               A       F#m     G               A               Bm  /
D|-------------------------------------------------------------------------------------------------|
A|-------------------------------------------------------------------------------------------------|
F|-------------------------------------------------------------------------------------------------|
C|-------------------------------------------------------------------------------------------------|
G|-5-5-5-5-5-5-5-5-7-7-7-7-4-4-4-4-5-5-5-5-5-5-5-5-7-7-7-7-7-7-7-7-9-9-9-9-9-9-9-9-9-9-9-9-9-9-9-9-|
D|-3-3-3-3-0-3-3-3-5-5-5-5-2-2-2-2-3-3-3-3-0-3-3-3-5-5-5-5-0-5-5-5-7-7-7-7-7-7-7-7-7-7-7-7-7-7-7-7-|
REFREN 3:  (03:26 - 04:04)
   G               A               F#m             Bm
D|-----------------------------------------------------------------|
A|-----------------------------------------------------------------|
F|-------------------------------------------------4-4-4-4-4-4-4-4-|---\
C|-5-5-5-5-5-5-5-5-7-7-7-7-7-7-7-7-4-4-4-4-4-4-4-4-4-4-4-4-4-4-4-4-|    \
G|-5-5-5-5-5-5-5-5-7-7-7-7-7-7-7-7-4-4-4-4-4-4-4-4-2-2-2-2-2-2-2-2-|     \
D|-3-3-3-3-3-3-3-3-5-5-5-5-5-5-5-5-2-2-2-2-2-2-2-2-----------------|     |
                                                                         |
   G               A               F#m             G                     |-- 3x
D|------------------------------------------------------------------|    |
A|------------------------------------------------------------------|    |
F|------------------------------------------------------------------|   /
C|-5-5-5-5-5-5-5-5-7-7-7-7-7-7-7-7-4-4-4-4-4-4-4-4-5-5-5-5-5-5---5--|--/
G|-5-5-5-5-5-5-5-5-7-7-7-7-7-7-7-7-4-4-4-4-4-4-4-4-5-5-5-5-5-5------|
D|-3-3-3-3-3-3-3-3-5-5-5-5-5-5-5-5-2-2-2-2-2-2-2-2-3-3-3-3-3-3-3----|
                                                               ×   M
                     G          A     F#m          Bm
        Zletijo bele iskre v nebo, v temi se vidi horizont,
             G          A   F#m          G
        in edinstven ocean se ga dotika tam.
             G          A     F#m          Bm
        Bele iskre v nebo, v temi se vidi horizont,
             G          A   F#m          G
        in edinstven ocean se ga dotika tam.

trzalica bartrzalica bar

 

 

 

Pesem je naložil

AliAs

Deli z drugimi

Vaš e-naslov ne bo objavljen. * označuje zahtevana polja