Kje imaš kitaro in trzalico? Besedilo in akordi so spodaj :-)

[[ DISCLAIMER ]]

JEŽEK - Slon in Sadež

E------------------------------------|
B---------------------------0--------|
G--0--0--2--0---------2--2-----2--0--|
D--------------4--0------------------|
A------------------------------------|
E------------------------------------|
  Je-žek te-ka te-ka in se raz-pa-ca    prd

E------------------------------------------|
B--0--0-----0---1--------------------------|
G--------2----------2--0----------------0--|
D-------------------------4--4--2---4------|
A------------------------------------------|
E------------------------------------------|
  Ja-bo-lke in hru-ške o-sta-ne-jo kar tam   prd

 

Pesem je naložil

shemshi

Deli z drugimi

Vaš e-naslov ne bo objavljen. * označuje zahtevana polja

VIDEO za igranje ob kitari

Please Add Widget from here