Kje imaš kitaro in trzalico? Besedilo in akordi so spodaj :-)

[[ DISCLAIMER ]]

 ___________________________________________________________
|  _______________________________________________________  |
| |                                                       | |
| | IZVAJALEC: .............. Mi2                         | |
| | PESEM: .................. Joj joj joj                 | |
| | ALBUM: .................. Črno na belem (2021)        | |
| | SPLETNA STRAN: .......... https://www.mi2.si/         | |
| |_______________________________________________________| |
| |                                                       | |
| |          Transkripcija: AliAs / april, 2021           | |
| |                      AKooSTeeKA                       | |
| |            w w w . t r z a l i c a . c o m            | |
| |_______________________________________________________| |
|___________________________________________________________|

==========================================================================
Trzalica.COM besedila z akordi in kitarske tablature slovenskih izvajalcev
==========================================================================

UVOD in VERZ:

   JOJ!!!
e|------------------------------------------------------------|
H|------------------------------------------------------------|
G|------------------------------------------------------------|
D|------------------------------------------------------------|
A|-------------------4--4-4-4---------------------------------|
E|-2/5--5-5-5-5-5-5-----------0--2--2-2-2-2-2-2--2--2-2-3-3-4-|

e|-------------------------------------------------------------|
H|-------------------------------------------------------------|
G|-------------------------------------------------------------| 5x
D|-------------------------------------------------------------|
A|-----------------4-4-4-4-4-4---------------------------------|
E|-5--5-5-5-5-5-5--------------0--2--2-2-2-2-2-2--2--2-2-3-3-4-|

A       C#m       F#m         G
BEŽIMO TECIMO, DIVJAKI GREDO
A        C#m       F#m        G
MOLIJO KREMPLJE NA NAŠE BLAGO
A       C#m  F#m              G
NAŠIH BOGOV  NE BI ČASTILI
A       C#m  F#m
V NAŠI SENCI BI SE HLADILI

                  F#m           G
BEŽIMO TECIMO, VAMPIR SE PREBUJA
A        C#m    F#m             G
ZOBE SI BRUSI, VEČNOST PONUJA
A          C#m     F#m          G
VSI SMO SE GOLI IN BOSI RODILI
A        C#m    F#m
PREDEN ZDANI SE KRI BOMO PILI

REFREN:

Igraj power akorde.
A2 akord je prijem X 12 14 14 X X

A             C#m
ŠTROMA NA ŽICE, KLJUČ NA DEVICE
  D        E         F        G  A2
STISNIMO SKUPAJ SE, DA BO TOPLO
A              C#m
ŠTROMA NA ŽLICE, ŠPEH NA POLICE
   D            E        F        G  A2
SKRIJMO SE V LUKNJO POD ČRNO ZEMLJO

PREHOD V VERZ:

Kitara 1.
e|---------------------------------|
H|---------------------------------|
G|----9-10-11----------------------|
D|-11---------9-10-11--------------|
A|--------------------11-12-7-9----|
E|---------------------------------|

Kitara 2.
e|--------------------------|
H|--------------------------|
G|--------------------------|
D|---2-3-4------------------|
A|-4-------2-3-4------------|
E|---------------4-5-0-2----|

VERZ:

                 F#m            G
BEŽIMO TECIMO, GLOBUS SE TRESE
A         C#m   F#m             G
KAR NI PRIBITO VETER ODNESE
A      C#m      F#m             G
GORA LEDENA ZAVRELA BO V KROP
A         C#m    F#m
BLIŽA SE BLIŽA VESOLJNI POTOP

REFREN:

A             C#m
ŠTROMA NA ŽICE, KLJUČ NA DEVICE
  D        E         F        G  A2
STISNIMO SKUPAJ SE, DA BO TOPLO
A              C#m
ŠTROMA NA ŽLICE, ŠPEH NA POLICE
   D            E        F        G  A2
SKRIJMO SE V LUKNJO POD ČRNO ZEMLJO

PREHOD V VERZ:

A   C#m F#m   G  H  A
A   C#m F#m   G  H  A

JOJ JOJ JOJ!

 

VERZ:

A       C#m    F#m              G
BEŽIMO TECIMO, KUGA PRIHAJA
A        C#m     F#m            G
VIRUS SE ŠIRI, BOLEZEN RAZSAJA
A        C#m    F#m             G
IN ČE PO ČUDEŽU KDO PREŽIVI
A       C#m    F#m
TEGA RAZTRGAJO DIVJE ZVERI

REFREN:

A             C#m
ŠTROMA NA ŽICE, KLJUČ NA DEVICE
  D        E         F        G  A2
STISNIMO SKUPAJ SE, DA BO TOPLO
A              C#m
ŠTROMA NA ŽLICE, ŠPEH NA POLICE
   D            E        F        G  A2
SKRIJMO SE V LUKNJO POD ČRNO ZEMLJO

A             C#m
ŠTROMA NA ŽICE, MASKE NA LICE
   D            E        F        G  A2
SKRIJMO SE V LUKNJO POD ČRNO ZEMLJO

A   C#m F#m   G  H  A

JOJ JOJ JOJ!

Pesem je naložil

AliAs

Deli z drugimi

Vaš e-naslov ne bo objavljen. * označuje zahtevana polja

VIDEO za igranje ob kitari