Kje imaš kitaro in trzalico? Besedilo in akordi so spodaj :-)

[[ DISCLAIMER ]]

   ___________________________________________________________
  |  _______________________________________________________  |
  | |                                                       | |
  | | IZVAJALEC: .............. Ans. Lojzeta Slaka          | |
  | | PESEM: .................. Kadar pa mim hišce grem     | |
  | | DOMAČA STRAN: ........... http://www.lojzeslak.com    | |
  | |_______________________________________________________| |
  | |                                                       | |
  | |   Avtor transkripcije: AliAs                          | |
  | |         Email: alias.ag@email.si                     | |
  | |    Domača stran transkripcije: www.trzalica.com       | |
  | |  Datum nastanka transkripcije: 22.10.2007             | |
  | |_______________________________________________________| |
  |___________________________________________________________|

================================================================================================

Prijemi akordov:
B   - 6 8 8 7 6 6
C#  - X 4 6 6 6 X
D#  - X 6 8 8 8 X
D#7 - X 6 5 6 4 X
G#  - 4 6 6 5 4 4

Uvod:
   D#
e|--------------|
B|---8------8---|
G|-----8------8-|  -- 2x
D|-8------------|
A|-------10-----|
E|--------------|

D#           G#
Kadar pa mim hišce grem,
B
hišice na vasi,
  B            D#      \
potrkam gor na okence,  \_ Ta del zaigramo še enkrat (Brez besedila.
   B            D#      /  Lojze zaigra melodijo petja na harmoniki)
se nihče ne oglasi.    /

    D#          G#
Dekleta v kamrici več ni,
  B
ljubce prve moje,
      B           D#       \
zdaj tam ji lučka že gori,  \_ Ta del zaigramo še enkrat (Brez besedila.
   B                 D#     /  Lojze zaigra melodijo petja na harmoniki)
in zadnji zvon ji poje.    /

    G#
Zvonovi ji že pojo
         D#7
žalostno pesmico,
D#7
fantje jo pa neso,
  C# D#    G#
v črno to jamico.
G#                           \
bim bam, bom bim bam bom,     \   Ta del zaigramo še enkrat (Brez besedila.
G#         D#7                 \_ Lojze zaigra melodijo petja na harmoniki)
žalostno zvon zvoni,           /  Glej tudi tabulaturo, ki prikazuje, kaj
D#7              C#  D#   G#  /   igra kitara v prvi ponovitvi tega dela.
jaz si pa brišem solzne oči. /

        3x            3x
   G#            D#7           C#   D#   G#
e|-------------|-------------|-----------4-4-4-4---|
B|---4-----4---|---4-----4---|-6----8----4-4-4-4---|
G|-----5-----5-|-----6-----6-|-6----8----5-5-5-5---|
D|-6-----------|-5-----------|-6----8----6-6-6-6---|
A|-------6-----|-------6-----|-4----6----6-6-6-6---|
E|-------------|-------------|-----------4-4-4-4---|

  D#            G#
Spet pokličem ljubica,
  B
ljubca vstani gori,
     B                               \
sem fantič tvoj,                      \_ Ta del zaigramo še enkrat (Brez besedila.
    D#            B              D#   /  Lojze zaigra melodijo petja na harmoniki)
bi rad s teboj le enkrat še govoril. /

    G#
Zvonovi ji že pojo
         D#7
žalostno pesmico,
D#7
fantje jo pa neso,
  C# D#    G#
v črno to jamico.
G#                           \
bim bam, bom bim bam bom,     \   
G#         D#7                 \_ Glej tabulaturo, ki prikazuje, kaj
žalostno zvon zvoni,           /  igra kitara v tem delu.
D#7              C#  D#   G#  /   
jaz si pa brišem solzne oči. /

        3x            3x
   G#            D#7           C#   D#   G#
e|-------------|-------------|-----------4-4-4-4---|
B|---4-----4---|---4-----4---|-6----8----4-4-4-4---|
G|-----5-----5-|-----6-----6-|-6----8----5-5-5-5---|
D|-6-----------|-5-----------|-6----8----6-6-6-6---|
A|-------6-----|-------6-----|-4----6----6-6-6-6---|
E|-------------|-------------|-----------4-4-4-4---|

G#
G#   D#7

D#7              C#  D#   G#
jaz si pa brišem solzne oči.

        2x                        3x
   D#7           C#   D#     G#
e|-------------|-----------|-------------|
B|---4-----4---|-6----8----|---4-----4---|
G|-----6-----6-|-6----8----|-----5-----5-|
D|-5-----------|-6----8----|-6-----------|
A|-------6-----|-4----6----|-------6-----|
E|-------------|-----------|-------------|

trzalica bartrzalica bar

Pesem je naložil

AliAs

Deli z drugimi

Vaš e-naslov ne bo objavljen. * označuje zahtevana polja