Kje imaš kitaro in trzalico? Besedilo in akordi so spodaj :-)

[[ DISCLAIMER ]]

 _______________________________________________________
|                                                       |
| IZVAJALEC: .............................. Yogurt      |
| PESEM: .................................. Kje je nebo |
| ALBUM: .................................. Elektrika   |
| LETO IZIDA: ............................. 2005        |
|_______________________________________________________|
|                                                       |
|  Vrsta transkripcije: Tabulatura in besedilo z akordi |
|  Avtor transkripcije: Aleš Godec (AliAs)              |
|  Domača stran transkripcije: www.trzalica.com         |
|  Datum nastanka transkripcije: 4.1.2007               |
|_______________________________________________________|

================================================================================================

LEGENDA ZNAKOV:
M = MUTE
X = Muffled
p = pul off
h = hammer on
/ = slide up
\ = slide down
¤ = harmonični ton

Prijemi akordov za refren:
   E   Em   G   Bm   A
e|-0---0----3---2----5---|
B|-0---0----3---3----5---|
G|-0---1----4---4----6---|
D|-2---2----5---4----7---|
A|-2---2----5---2----7---|
E|-0---0----3---2----5---|

================================================================================================

VERZ 1:

   Bsus2 G         A     Em           Bsus2 G         A     Em
e|---2----------------------------------2-------------------------------|
B|---2-XX-------------------------------2-XX----------------------------|
G|---4-XX2----2-------------------------4-XX2----2----------------------|  -- 3x
D|-------5----5------7--02-----2------------5----5------7--02----2p0----|
A|-2-----------------7--02-----2--2p0-2-----------------7--02---2---2p0-|
E|----------3----3/5--------0------------------3----3/5--------0--------|
                      M                                  M

    Bsus2    G
Prišel si k meni
 A        Em
Ko sem bila
 Bsus2   G
Sama na kavi
     A         Em
In gledala v tla
    Bsus2  G
Prijel si moje
 A        Em
Mrzle dlani
 Bsus2    G
Kot da si angel
    A       Em
Ki čuva ljudi

   G                A                  G                A
e|---------------------------------------------------------------------------|
B|---------------------2-2------------------------------------------------7--|
G|----2-2-------2------4-4------4p2-------2-2-------2------0-4p2-------------|
D|----5-5-------5------------------4p2----5-5-------5-----------4p2----------|
A|------------------0--------0--------------------------0----------0---------|
E|-3--------3--------------------------3--------3----------------------------|
       M         M      M                  M         M              M     ¤

G          A
Zdaj je vse drugače kot prej
G            A
Ostala bom tu zato mi povej

REFREN 1:

      Em          G
Kje je nebo
           Bm
Kje sem nocoj
             A              Em
Zakaj več ničesar ni nad menoj
          G
Kje je nebo
        Bm
Ko zamižim
        A              G  E
Kje so sanje ko se zbudim

VERZ 2:

   Bsus2 G         A     Em                Bsus2 G         A     Em
e|---2---------------------------------------2-------------------------------|
B|---2-XX------------------------------------2-XX----------------------------|
G|---4-XX2----2------------------------------4-XX2----2----------------------|
D|-------5----5------7--02-----2----2p0----------5----5------7--02----2p0----|
A|-2-----------------7--02-----2---2---2p0-2-----------------7--02---2---2p0-|
E|----------3----3/5--------0-----0-----------------3----3/5--------0--------|
                      M                                       M

   Bsus2 G         A     Em           Bsus2 G         A     Em
e|---2----------------------------------2-------------------------------|
B|---2-XX-------------------------------2-XX----------------------------|
G|---4-XX2----2-------------------------4-XX2----2----------------------|  -- 2x
D|-------5----5------7--02-----2------------5----5------7--02----2p0----|
A|-2-----------------7--02-----2--2p0-2-----------------7--02---2---2p0-|
E|----------3----3/5--------0------------------3----3/5--------0--------|
                      M                                  M

   G                A                  G                A
e|---------------------------------------------------------------------------|
B|---------------------2-2------------------------------------------------7--|
G|----2-2-------2------4-4------4p2-------2-2-------2------0-4p2-------------|
D|----5-5-------5------------------4p2----5-5-------5-----------4p2----------|
A|------------------0--------0--------------------------0----------0---------|
E|-3--------3--------------------------3--------3----------------------------|
       M         M      M                  M         M              M     ¤

Bila sem sama
Na koncu sveta
Ko si mi pokazal
Kje sem doma
In spomnim se
Učil si me
Poljubljat zvezde
In božat srce
Zdaj je vse drugače kot prej
Ostala bom tu zato mi povej

REFREN 2:

      Em          G
Kje je nebo
           Bm
Kje sem nocoj
             A              Em
Zakaj več ničesar ni nad menoj
          G
Kje je nebo
        Bm
Ko zamižim
        A              G  E
Kje so sanje ko se zbudim

BRIDGE / SOLO:

e|---2------0----X-X-----------------------------0-------------------|
B|---2-XX---0----X-X-----7-8-7h8p7---7-----------7-------------------|
G|---4-XX2--0----X-X-5/9-----------9---9-8-------7-------------------|
D|-------5--0----X-X-----------------------7/9-------9-7h9p7---7-----|
A|-2--------2----X-X-----------------------------------------9---7-\-|
E|---------------X-X-------------------------------------------------|

e|------------------------------------------0---0--------------------------|
B|----------------------------------------3---3---3------3--3--------------|
G|----9--11---14----16--14--14/16---14\-------------4-2--2--2--------------|
D|-----9---11---14----------14/16---14\-----------------------5-4-2-0------|
A|-/7-----------------------------------------------------------------2----|
E|-------------------------------------------------------------------------|
                       M  M                            M 

e|--------------------------------------------5--0-------------------------|
B|--------------------------------------------5--0---------------------7---|
G|-----0--------------------------------------5--0-------------------------|
D|-2/4---4----------7--5-2-2h4p2-0-2-0--------5--0-------------------------|
A|---------5---5----7--5-2-------------2-0----5----------------------------|
E|-----------7---5-------------------------3-------------------------------|
                                              ¤                        ¤

REFREN 3:

Em  G  Bm  A   -> 6x

G  E

trzalica bartrzalica bar

Pesem je naložil

AliAs

Deli z drugimi

Vaš e-naslov ne bo objavljen. * označuje zahtevana polja