Kje imaš kitaro in trzalico? Besedilo in akordi so spodaj :-)

[[ DISCLAIMER ]]

 _______________________________________
|                                       |
| IZVAJALEC: ............ Slon in Sadež |
| PESEM: ............ Komercialne pizde |
| ALBUM: ............ Komercialne pizde |
|_______________________________________|
|                                       |
|   Besedilo z akordi                   |
|   Transkripcija: AliAs                |
|   Domača stran: www.trzalica.com      |
|_______________________________________|

UVOD:

   G             D          C       G
e|------7----------5----------8-----8--7--5--7-----|
B|-------------------------------------------------|
G|-4-/7-------2-/5-------5-/9-------9--7--5--7-----|
D|-------------------------------------------------|
A|-------------------------------------------------|
E|-------------------------------------------------|

   G             D          C                   G
e|------7----------5----------8----7----5----2--3-----|
B|----------------------------------------------------|
G|-4-/7-------2-/5-------5-/8----7----5----2----4-----|
D|----------------------------------------------------|
A|----------------------------------------------------|
E|----------------------------------------------------|

      G                                C                   G
Dober večer. Sva Slon in Sadež. Kr kul slovenski duet,
      D                     C               G
ki šele pred kratkim je postal kvartet.

VERZ 1:

      G                       C                G
Na začetku je blo fajn in vse kul je blo.
      D                              C              G
Ampak ni trajalo dolgo, pa vse u kurac je šlo!
      G                         C              G
Igrali smo na Metelkovi, je pršu en pozer,
      D                               C           G
je reku da smo ful hudi in da on je menedžer.
      G                                  C                G
Tip se je delu finga, ampak sej vemo kakšna je stvar.
          D                               C           D
Prec ko smo se obrnili, nam je v žepe tlaču dnar.

REFREN 1:

      C           D
In od takrat...
      G           Em
In od takrat...
      C              D                (G  D  C  G  )  2x
Od takrat smo ...komercialne pizde

   G             D          C       G
e|------7----------5----------8-----8--7--5--7-----|
B|-------------------------------------------------|
G|-4-/7-------2-/5-------5-/9-------9--7--5--7-----|
D|-------------------------------------------------|
A|-------------------------------------------------|
E|-------------------------------------------------|

   G             D          C                   G
e|------7----------5----------8----7----5----2--3-----|
B|----------------------------------------------------|
G|-4-/7-------2-/5-------5-/8----7----5----2----4-----|
D|----------------------------------------------------|
A|----------------------------------------------------|
E|----------------------------------------------------|

VERZ 2:

      G                     C                    G
Špilamo čist povsod, sam da dnar bi nam dal.
      D                                 C               G
Zadnjič naprimer skupaj z Guštijem in Polono Kasal.
      G                          C                     G
In zdej k smo tok slavni, po osem jurjev mamo karte.
      D                             C            G
Igramo tud na stadionu, če tam lih ni Simone Weiss.
      G                           C               G
Če hočem o sebi kej zvedet, si kupim časopis,
      D                                        C            G
tok duhovit sm v intervjujih, da tudi nase nardim vtis.
      G                                      C                   G
In zadnjič mi je postalo jasno, da sm kapitalistični grebator,
      D                            C         D
ko sm si šel kupit svojo plato u Mercator.

REFREN 2:

      C           D
In od takrat...
      G           Em
In od takrat...
      C              D                (G  D  C  G  )  2x
Od takrat smo ...komercialne pizde

   G             D          C       G
e|------7----------5----------8-----8--7--5--7-----|
B|-------------------------------------------------|
G|-4-/7-------2-/5-------5-/9-------9--7--5--7-----|
D|-------------------------------------------------|
A|-------------------------------------------------|
E|-------------------------------------------------|

   G             D          C                   G
e|------7----------5----------8----7----5----2--3-----|
B|----------------------------------------------------|
G|-4-/7-------2-/5-------5-/8----7----5----2----4-----|
D|----------------------------------------------------|
A|----------------------------------------------------|
E|----------------------------------------------------|

VERZ 3:

'Do zdaj skrbeli smo za šalo in zabavo,
a prihranili smo za konec tisto pravo.
Zato za koncem pesmi ansambel vam izda,
da najlepša pesem, je tista iz srca.'

Zdej smo mornarji na prašni avtocesti.
Žalujoc za srci, ki so se pustila zmesti.

      G                                 C            G
In v posušeni steklenici je vode le še za požirek,
      D                                      C           G
ki naj ga spijemo takrat, ko prišel čas bo za počitek.
      G                C                 G
Hodimo po poti, ki vije se pred nami.
      D                            C            G
In kamorkoli pridemo, smo tam še vedno sami.
      G                         C           G
Zato, kar sproži stari, in ne se sekirat,
      D                                 C              D
ker sm jaz prvi izmed vas, ki gre to stvar sčekirat.

REFREN 3:

      C           D             G
In od takrat (in od takrat)
          Em            C
In od takrat (in od takrat)
             D                (G  D  C  G  )  2x
Od takrat smo ...komercialne pizde

   G             D          C       G
e|------7----------5----------8-----8--7--5--7-----|
B|-------------------------------------------------|
G|-4-/7-------2-/5-------5-/9-------9--7--5--7-----|
D|-------------------------------------------------|
A|-------------------------------------------------|
E|-------------------------------------------------|

   G             D           C                           G
e|------7----------5-----------8------7------5------2----3---------|
B|-----------------------------------------------------------------|
G|-4-/7-------2-/5-------5--/8-----7------5------2-------4---------|
D|-----------------------------------------------------------------|
A|-----------------------------------------------------------------|
E|-----------------------------------------------------------------|

trzalica bartrzalica bar

Pesem je naložil

AliAs

Deli z drugimi

Vaš e-naslov ne bo objavljen. * označuje zahtevana polja

VIDEO za igranje ob kitari

Please Add Widget from here