Kje imaš kitaro in trzalico? Besedilo in akordi so spodaj :-)

[[ DISCLAIMER ]]

 

Naslov:..........MOJA LJUBICA
Izvajalec:.......Jan Plestenjak
Transkripcija:...shemshi (www.trzalica.com)

Uvod: G  C D C D G (2x)

e|------7--7-7h8p7\5-5-3-3---5--7--8---8-7h8p7-7\5-5---5--7--8---8-7h8p7-7\5-5---------7----7-7h8p7\5-5-3-3---|
B|-8-10-------------------------------------------------------------------------8--10-------------------------|
G|------------------------------------------------------------------------------------------------------------|
D|------------------------------------------------------------------------------------------------------------|
A|------------------------------------------------------------------------------------------------------------|
E|------------------------------------------------------------------------------------------------------------|

e|--------7----7-7h8p7\5-5-3-3----5--7--8----8-7h8p7-7\5-5----5--7--8----8-7h8p7-7\5-5------5/7--5\3-3--------|
B|-8--10----------------------------------------------------------------------------------8-------------------|
G|------------------------------------------------------------------------------------------------------------|
D|------------------------------------------------------------------------------------------------------------|
A|------------------------------------------------------------------------------------------------------------|
E|------------------------------------------------------------------------------------------------------------|

G                         D
Kaj ko nisem vedel, da ljubila si me ti
Em                          Hm
in pustil sem drugi, da zabriše vse sledi.
C                             G
Dobro vem, da kriv sem, ampak čas ne oprosti
C                           D
gledam stare slike, kjer smejala si se ti.

Refren:
G              C     D
Moja ljubica, če bi tukej bla,
C                      D
ti edina ključ imaš od mojega srca.
G              C     D
Moja ljubica, če bi tukej bla,
C                        D          G
kradel bi kot lopov leta le za naju dva.

tukej bla...
e|-5/7--5--3----|
B|--------------|
G|--------------|
D|--------------|
A|--------------|
E|--------------|

G                      D
Niso kriva mlada leta, da sva se razšla,
Em                    Hm
grde so besede padle, vem zato si šla.
C                      G
Lahka ni ta igra, ko zaljubita se dva,
C                      D
oprosti je bila beseda težka za oba.

Refren:
G              C     D
Moja ljubica, če bi tukej bla,
C                      D
ti edina ključ imaš od mojega srca.
G              C     D
Moja ljubica, če bi tukej bla,
C                        D          G
kradel bi kot lopov leta le za naju dva.

Prehod: G  C D C D G (Uvod - glej tabulaturo zgoraj)

C          D           G
To noč naj pada dež in naj opere grehe vse,
C                         D
čakal bom na jutro, da mi dušo spet prižge.
C            D             G
Božaj me kot trava zemljo, hrani me z ljubeznijo,
C                         D
daj da jokam tvoje solze, ko ti bo hudo.

Refren

Zaključek: G  C D C D G (Uvod - glej tabulaturo zgoraj)
trzalica bartrzalica bar

Pesem je naložil

shemshi

Deli z drugimi

Vaš e-naslov ne bo objavljen. * označuje zahtevana polja