Kje imaš kitaro in trzalico? Besedilo in akordi so spodaj :-)

         __________________________________________________________
        | ________________________________________________________ |
        ||Izvajalec: .... Big Foot Mama                           ||
        ||Naslov: ....... Moja Mama                               ||
        ||Album: ........ Važno, da zadane                        ||
        ||Leto izida: ... 2007                                    ||
        ||________________________________________________________||   
        ||Vrsta transkripcije: .... Besedilo, akordi in tablature ||
        ||Transkripcijo izdelal: .. PERO25                        ||
        ||Domaca stran: ........... www.trzalica.com              ||
        ||Datum nastanka:.......... 7.November.2007               ||
        ||________________________________________________________||
        |__________________________________________________________|
 

KRATKA NAVODILA!
V tablaturi sta dve kitari:
- Kitara 1: Zoran
- Kitara 2: Danijel

LEGENDA
A5* ali E5* - udarjaj po ritmu

UVOD:

Kitara 1:
     2x                  4x
-|-----------|-------------------------|
-|-----8--7--|----------------8-7-7-7--|
-|-----7--7--|----------------7-7-8-7--|
-|-7---9--7--|----7-7------7--------7--|
-|-0---------|--0------0-0-------------|
-|-----------|-------------------------|
   A   G  D     A             G     D

Kitara 2:

-|------3---3---|
-|------3-3-3-3-|
-|--2---0-2-0-2-|
-|--2---0-0-0-0-|
-|--0-----------|
-|--------------|
    A   G D G D

VERZ 1:

A5           G5
Moja mama ni prava mama,
F#5                 E5
prave mame se ne spom'nm vec.
                G5
Nje že dolgo ni vec na svetu,
D5                 E5
za njo že dolgo ne jocem vec. ---> pick slide

RIFF 1:

Kitara 1:
              4x
-|---------------------------|
-|----------------8-7-8-7----|
-|----------------7-7-7-7----| =RIFF1
-|-----7-7-----7--------7----|
-|-0-0-----0-0---------------|
-|---------------------------|
   A*   G  D    A*             G     D

Kitara 2:
     4x
-|------3---3---|
-|------3-3-3-3-|
-|--2---0-2-0-2-|
-|--2---0-0-0-0-|
-|--0-----------|
-|--------------|
    A   G D G D

VERZ 2:

A5             G5
Kriva je da se res ne spom'nm, 
F#5                 E5
a vseeno vem da je blazn fajn.
             G5
Oceta še ona ni poznala,
D5                 E5
zaradi mene odšel je v ta usrani svet.

PREDREFREN 1: OBE KITARI

-|---------------------------------------|------------------------|-
-|-----------4--4-4-4-------------4--4-4-|--7----9----------------|-  PRVI takt prvic celega, 
-|-4---4---4-4--4-4-4--4---4---4--4--4-4-|--7----9----------------|-  DRUGIC do polovice in na drugi takt! 
-|-4---4---4-2--2-2-2--4---4---4--2--2-2-|--5----7----------------|-  Poslušaj skladbo.
-|-2-0-2-0-2-----------2-0-2-0-2---------|------------------------|-
   F#5       B5                             D5*  E5*

Ona je na štriku koncala,

težko sem prišel na svet.

Ona je na štriku koncala,

oce pa je zbežal..

REFREN 1:

Kitara 1:
 |<----- 4x (zelo hitro)------->|
-|------------------------------|------|
-|------------------------------|------|
-|------------------------------|--11--|
-|------7-7-------7-7-------7-7-|--11--|
-|-0-0-------0-0-------0-0------|--9---|
-|------------------------------|------|
                                   F#

Kitara 2:

-|------3---3---|-----|
-|------3-3-3-3-|-----|
-|--2---0-2-0-2-|-----|
-|--2---0-0-0-0-|--4--|
-|--0-----------|--4--|
-|--------------|--2--|
    A   G D G D    F#*

Mama, moja mama, moja mama, la la la

Mama, moja mama, moja mama, mamica

RIFF 1:

Kitara 1:
              4x
-|---------------------------|
-|----------------8-7-8-7----|
-|----------------7-7-7-7----| =RIFF1
-|-----7-7-----7--------7----|
-|-0-0-----0-0---------------|
-|---------------------------|
   A*   G  D    A*             G     D

Kitara 2:

-|------3---3---|
-|------3-3-3-3-|
-|--2---0-2-0-2-|
-|--2---0-0-0-0-|
-|--0-----------|
-|--------------|
    A   G D G D

VERZ 3:

A5           G5
Moja mama ni prava mama,
F#5                 E5
prave mame se ne spom'nm vec.
                G5
Nje že dolgo ni vec na svetu,
D5                 E5
za njo že dolgo ne jocem vec.

A5             G5
Kriva je da se res ne spom'nm, 
F#5                 E5
a vseeno vem da je blazn fajn.
             G5
Oceta še ona ni poznala,
D5                 E5
zaradi mene odšel je v ta usrani svet.

PREDREDFREN 2:

-|---------------------------------------|------------------------|-
-|-----------4--4-4-4-------------4--4-4-|--7----9----------------|-  PRVI takt prvic celega, 
-|-4---4---4-4--4-4-4--4---4---4--4--4-4-|--7----9----------------|-  DRUGIC do polovice in na drugi takt! 
-|-4---4---4-2--2-2-2--4---4---4--2--2-2-|--5----7----------------|-  Poslušaj skladbo.
-|-2-0-2-0-2-----------2-0-2-0-2---------|------------------------|-
   F#5       B5                             D5*  E5*

Ona je na štriku koncala,

težko sem prišel na svet.
O
na je na štriku koncala,

oce pa je zbežal..

REFREN 2:

Kitara 1:
         4x (zelo hitro)
-|------------------------------|------|
-|------------------------------|------|
-|------------------------------|--11--|
-|------7-7-------7-7-------7-7-|--11--|
-|-0-0-------0-0-------0-0------|--9---|
-|------------------------------|------|
                                   F#

Kitara 2:

-|------3---3---|-----|
-|------3-3-3-3-|-----|
-|--2---0-2-0-2-|-----|
-|--2---0-0-0-0-|--4--|
-|--0-----------|--4--|
-|--------------|--2--|
    A   G D G D    F#*

Mama, moja mama, moja mama, la la la

Mama, moja mama, moja mama, mamica

RIFF 1 + SOLO:

Kitara 1: obcasno

-|------------| SOLO se igra v A-duru.
-|------8--7--|
-|------7--7--|
-|-7----9--7--|
-|-0----------|
-|------------|
   A5*  G  D

ali:
-|------3-----|
-|------3--3--|
-|-2----0--2--|
-|-2----0--0--|
-|-0----x-----|
-|------3-----|
   A*   G* D*

BRIDGE:

-|---------------------|----------|
-|---------------------|----------|
-|---------------------|--7----9--|
-|-4-4-----4-4----4-4--|--7----9--|
-|-4-4-----4-4----4-4--|--5----7--|
-|-2-2-----2-2----2-2--|----------|
   F#5                    D5*  E5*

REFREN 3:

Kitara 1:
         4x (zelo hitro)
-|------------------------------|------|
-|------------------------------|------|
-|------------------------------|--11--|
-|------7-7-------7-7-------7-7-|--11--|
-|-0-0-------0-0-------0-0------|--9---|
-|------------------------------|------|
                                   F#

Kitara 2:

-|------3---3---|-----|
-|------3-3-3-3-|-----|
-|--2---0-2-0-2-|-----|
-|--2---0-0-0-0-|--4--|
-|--0-----------|--4--|
-|--------------|--2--|
    A   G D G D    F#*

Mama, moja mama, moja mama, la la la

Mama, moja mama, moja mama, mamica

OUTRO: OBE KITARI

A5    A5
Mama, mama

 

trzalica bar

trzalica bar

Pesem je naložil

PERO25

Deli z drugimi

Vaš e-naslov ne bo objavljen. * označuje zahtevana polja