Kje imaš kitaro in trzalico? Besedilo in akordi so spodaj :-)

[[ DISCLAIMER ]]

Besedila in akordi na TrzaliciOglej si še:   Molk - solo (tab)
  Molk (gp)

trzalica bar

 ______________________________________________________________
|                                                              |
| IZVAJALEC: ................................ Niet             |
| PESEM: .................................... Molk             |
| ALBUM: .................................... Lep dan za smrt  |
| LETO IZIDA: ............................... 1996             |
|______________________________________________________________|
|                                                              |
|  Vrsta transkripcije: Besedilo z akordi                      |
|  Avtor transkripcije: Mastnak Mitja (NUFAN)                  |
|    email: mmastnak@gmail.com                                 |
|  Domača stran transkripcije: www.trzalica.com                |
|  Datum nastanka transkripcije: 30.09.2006                    |
|______________________________________________________________|

================================================================================================

Intro:

 E     A     C   E     D
                La la la

 E     A     C   E     D
la la la la la  la la la

Verz:

E                 A
Ulica temna in tiha
     C#           E
na njej blešče se kaplje
    D
dežja.

Refren:

H       C     C#
Mi za zidovi, mi za zidovi, mi
          D 
za zidovi,  molčimo

Solo:

e|-9--11-12-11--9--11-12-11--9--11-12-14-11-12-9--11-11-12-11-9-11-12-11--------------|
B|------------------------------------------------------------------------9---------9-|
G|--------------------------------------------------------------------------11-9-11---|
D|------------------------------------------------------------------------------------|
A|------------------------------------------------------------------------------------|
E|------------------------------------------------------------------------------------|

Verz:

E     A     C
Zunaj pa v vetru jadrajo
   E D
oblaki,
     E          A          C 
kot ladje, kot ladje, kot ladje
      E    D
brez jamborov.

Refren:

H             C             C#
Mi za zidovi, mi za zidovi, mi

za zidovi
        D
molčimo,  molčimo. (kot krogla v cevi)

Solo:

e|-9--11-12-11--9--11-12-11--9--11-12-14-11-12-9--11-11-12-11-9-11-12-11--------------|
B|------------------------------------------------------------------------9---------9-|
G|--------------------------------------------------------------------------11-9-11---|
D|------------------------------------------------------------------------------------|
A|------------------------------------------------------------------------------------|
E|------------------------------------------------------------------------------------|

#==============================================================================#
#                                                                              #
#                    w w w . t r z a l i c a . c o m                           #
#               K j e r   i m a m o   r a d i   g l a s b o                    #
#                                                                              #
#==============================================================================#

================================================================================================
www.trzalica.com    www.trzalica.com    www.trzalica.com    www.trzalica.com    www.trzalica.com
================================================================================================
trzalica bar

trzalica bar

Pesem je naložil

NUFAN

Deli z drugimi

Vaš e-naslov ne bo objavljen. * označuje zahtevana polja