Kje imaš kitaro in trzalico? Besedilo in akordi so spodaj :-)

[[ DISCLAIMER ]]

 _________________________________________________________________________
|
| IZVAJALEC: .............. Dan D
| PESEM: .................. Ne naredi mi tega
| ALBUM: .................. Knjiga pohval in pritožb (Milo za drago)
| LETO IZIDA: ............. 2019
| SPLETNA STRAN: .......... https://dan-d.net/
|
| Transkripcija: AliAs & chipipi (AKooSTeeKA) / april, 2021
|_________________________________________________________________________

==========================================================================
Trzalica.COM besedila z akordi in kitarske tablature slovenskih izvajalcev
==========================================================================

---Uvod:

e|-0-------0-------0-------0-------0-------0-------0-------0----------|
H|-0-------1-------2-------3-------3-------3-------2-------1----------|
G|-0-------0-------0-------0-------1-------0-------0-------0--0-------|
D|-----2-------2-------2-------2-------2-------2-------2--------2-----|
A|-----2-------2-------2-------2-------2-------2-------2--------------|
E|-----0-------0-------0-------0-------0-------0-------0--------------|

---Verz:

   Em   Em*    C    C*
e|-0----3----|-0----3----|
H|-0----0----|-1----1----|
G|-0----0----|-0----0----|
D|-2----2----|-2----2----|
A|-2----2----|-3----3----|
E|-0----0----|-----------|

   Am   Am7    C    C*     D
e|-0----0----|-0----3----|-2----2----|
H|-1----1----|-1----1----|-3----3----|
G|-2----0----|-0----0----|-2----2----|
D|-2----2----|-2----2----|-0----0----|
A|-0----0----|-3----3----|-----------|
E|-----------|-----------|-----------|

   Em   Em*  Em   Em*     C    C*   C    C*      Em   Em*
e|-0----3----0------------0----3----0------------0----3----|
H|-0----0----0------------1----1----1------------0----0----|
G|-0----0----0------------0----0----0------------0----0----|
D|-2----2----2----2-1-0---2----2----2--------0-1-2----2----|
A|-2----2----2----------4-3----3----3----3-4-----2----2----|
E|-0----0----0-----------------------------------0----0----|

Em             C                   Em
Če ne bom več sanjal, bolje da me ni
          C                        Em
Če bom pozabil na prepovedane stvari
                 C                       Am
Če bom zagledan vase, bom pozabil na ljudi
              C   D                Em
Če se bom predal ... ni zame milosti

Če ne bom videl duše druge veroizpovedi
če se bom skrival v svoji pameti
če bom sovražil tiste, ki drugače mislijo
če ne bom ljubil tebe ... ker ljubim te tako.
Ker ljubim te tako.

---Refren:

C     G         C              G        C
Ne naredi mi tega, naj bom do konca jaz,
     G             C
neusmiljen, mal' neumen,
       G          C
rahlo jezen in pogumen,
      G         C        G           C
ne naredi mi tega, ne nadeni mi oklepa
          G           C
smešna stran odkrivanja
     G             Hm
ko umiraš svet je lep
Em   Am            Gm     C
......... Svet je lep.

   Em        C
Uuuuuuuu uuu uuuuu
   Em        C
Uuuuuuuu uuu uuuuu

   Em        C        Am

              C   D                Em  Em-D-C
Če se bom predal ... ni zame milosti ......... Aaaaaa

Em              C                     Am
Ne naredi mi tega, naj bom do konca jaz,
                   C
neusmiljen, mal' neumen,
                  Em
rahlo jezen in pogumen,
                C                    Am
ne naredi mi tega, ne nadeni mi oklepa
                      C
smešna stran odkrivanja
                   Em     C
ko umiraš svet je lep

Em    C

Pesem je naložil

AliAs

Deli z drugimi

Vaš e-naslov ne bo objavljen. * označuje zahtevana polja

VIDEO za igranje ob kitari