Kje imaš kitaro in trzalico? Besedilo in akordi so spodaj :-)

[[ DISCLAIMER ]]

trzalica bar

Naslov:.........NISEM VEČ S TABO
Izvajalec:......Big Foot Mama
Transkripcija:..shemshi (www.trzalica.com)

Uvod (2x)

E-----0-----1-----3-----1-----0---|-----7-----8-----10-----8-----7---|
B-1-1---1-1---1-1---1-1---1-1---1-|-8-8---8-8---8-8----8-8---8-8---8-|
G---------------------------------|----------------------------------|
D---------------------------------|----------------------------------|
A---------------------------------|----------------------------------|
E---------------------------------|----------------------------------|

E-------8-------10-------12-------10-------8----|
B-10-10---10-10----10-10----10-10----10-10---10-|
G-----------------------------------------------|
D-----------------------------------------------|
A-----------------------------------------------|
E-----------------------------------------------|

E-----7-----8-----10-----8-----7---|
B-8-8---8-8---8-8----8-8---8-8---8-|
G----------------------------------|
D----------------------------------|
A----------------------------------|
E----------------------------------|


Lohk' ti je žal za zvezde na nebu 

lohk' ti je žal za nedolžne oči 
     Am 
tud' rože na oknu kmal ovenijo 
       G 
če jim vzameš toploto in ugasneš luči. 

C
Nisem to'k nor, da bi kopu seb' jamo 
G
nisem to'k star, da bi se mi kam mudil 
Am
vse, kar sem hotu in želu od tebe 
G
je, da se zjutri ob teb lohk' zbudim 

 
E-----0-----1-----3-----1-----0---|-----7-----8-----10-----8-----7---|
B-1-1---1-1---1-1---1-1---1-1---1-|-8-8---8-8---8-8----8-8---8-8---8-|
G---------------------------------|----------------------------------|
D---------------------------------|----------------------------------|
A---------------------------------|----------------------------------|
E---------------------------------|----------------------------------|

E-------8-------10-------12-------10-------8----|
B-10-10---10-10----10-10----10-10----10-10---10-|
G-----------------------------------------------|
D-----------------------------------------------|
A-----------------------------------------------|
E-----------------------------------------------|

E-----7-----8-----10-----8-----7---|
B-8-8---8-8---8-8----8-8---8-8---8-|
G----------------------------------|
D----------------------------------|
A----------------------------------|
E----------------------------------|

C
Zate sem dihu, zate se hranu
G
pazu zaklade, hijene zavaju
Am
v temi sem gledu, v temi te branu
G
vse tvoje želje sem k soncu najavu

C
Z mano si cvetela, z mano bila si vse
G
skupaj sva čutila potrebo po še
Am
plesala si na soncu, bla si brez sramu
G
zdej pa tvoje sanje spijo na dežju

C
Ne, ne nisem več s tabo
G
ne, ne ne bo me več tle
   Am
še zdej mi ni jasn zakaj si ubila
G
tist kar je nama pomen'l vse 

C
Ne, ne nisem več s tabo
G
ne, ne ne bo me več tle
     Am
sam' neki boš mogla vedet za zmeri:
 G
ostal ti bo sam' moj srce!

E-----0-----1-----3-----1-----0---|-----7-----8-----10-----8-----7---|
B-1-1---1-1---1-1---1-1---1-1---1-|-8-8---8-8---8-8----8-8---8-8---8-|
G---------------------------------|----------------------------------|
D---------------------------------|----------------------------------|
A---------------------------------|----------------------------------|
E---------------------------------|----------------------------------|

E-------8-------10-------12-------10-------8----|
B-10-10---10-10----10-10----10-10----10-10---10-|
G-----------------------------------------------|
D-----------------------------------------------|
A-----------------------------------------------|
E-----------------------------------------------|

E-----7-----8-----10-----8-----7---|
B-8-8---8-8---8-8----8-8---8-8---8-|
G----------------------------------|
D----------------------------------|
A----------------------------------|
E----------------------------------|

C
Zate sem dihu, zate se hranu
G
pazu zaklade, hijene zavaju
Am
v temi sem gledu, v temi te branu
G
vse tvoje želje sem k soncu najavu

C
Z mano si cvetela, z mano bila si vse
G
skupaj sva čutila potrebo po še
Am
plesala si na soncu, bla si brez sramu
G
zdej pa tvoje sanje spijo na dežju

C
Ne, ne nisem več s tabo
G
ne, ne ne bo me več tle
   Am
še zdej mi ni jasn zakaj si ubila
G
tist kar je nama pomen'l vse 

C
Ne, ne nisem več s tabo
G
ne, ne ne bo me več tle
     Am
sam' neki boš mogla vedet za zmeri:
 G
ostal ti bo sam' moj srce!

Sam moj srce... 2x

E-----0-----1-----3-----1-----0---|-----7-----8-----10-----8-----7---|
B-1-1---1-1---1-1---1-1---1-1---1-|-8-8---8-8---8-8----8-8---8-8---8-|
G---------------------------------|----------------------------------|
D---------------------------------|----------------------------------|
A---------------------------------|----------------------------------|
E---------------------------------|----------------------------------|

E-------8-------10-------12-------10-------8----|
B-10-10---10-10----10-10----10-10----10-10---10-|
G-----------------------------------------------|
D-----------------------------------------------|
A-----------------------------------------------|
E-----------------------------------------------|

E-----7-----8-----10-----8-----7---|
B-8-8---8-8---8-8----8-8---8-8---8-|
G----------------------------------|
D----------------------------------|
A----------------------------------|
E----------------------------------| 

Nek drug solo

Med solom
1. Ne, ne n'kol več,n'kol več (4x)
2. Ne n'kol več,n'kol več (4x)

2x
E-----0-----1-----3-----1-----0---|-----7-----8-----10-----8-----7---|
B-1-1---1-1---1-1---1-1---1-1---1-|-8-8---8-8---8-8----8-8---8-8---8-|
G---------------------------------|----------------------------------|
D---------------------------------|----------------------------------|
A---------------------------------|----------------------------------|
E---------------------------------|----------------------------------|

E-------8-------10-------12-------10-------8----|
B-10-10---10-10----10-10----10-10----10-10---10-|
G-----------------------------------------------|
D-----------------------------------------------|
A-----------------------------------------------|
E-----------------------------------------------|

E-----7-----8-----10-----8-----7---|
B-8-8---8-8---8-8----8-8---8-8---8-|
G----------------------------------|
D----------------------------------|
A----------------------------------|
E----------------------------------| 

trzalica bar

trzalica bar

Pesem je naložil

shemshi

Deli z drugimi

Vaš e-naslov ne bo objavljen. * označuje zahtevana polja