Kje imaš kitaro in trzalico? Besedilo in akordi so spodaj :-)

[[ DISCLAIMER ]]

Besedila in akordi na TrzaliciOstale verzije te pesmi:    besedilo z akordi  Od višine se zvrti       Od višine se zvrti (gp)

trzalica bar

 _______________________________________________________
|                                                       |
| IZVAJALEC: .............. Siddharta                   |
| PESEM: .................. Od višine se zvrti          |
| ALBUM: .................. Kreslinčice (Vlado Kreslin) |
| LETO IZIDA: ............. 2002                        |
|_______________________________________________________|
|                                                       |
|  Avtor transkripcije: AliAs                           |
|  Domača stran transkripcije: Trzalica.com             |
|  Datum nastanka transkripcije: 18.1.2006              |
|_______________________________________________________|
================================================================================================
LEGENDA:
M = MUTE
× = palm muted
~ = let ring
p = pull off
h = hammer on
/ = slide up
\ = slide down
UGLASITEV: D G C F A D (en ton nižje)
TRANSPONACIJA AKORDOV:
D G C F A D uglasitev ------------ standardna uglasitev 
 (navidezni prijemi)                  (pravi akordi)
                E   ---------------->   D
                G#m ---------------->   F#m
                A   ---------------->   G
                B   ---------------->   A
                F#m ---------------->   Em
                G#  ---------------->   F#
                C#m ---------------->   Bm
Tabulatura in (navidezni) akordi v besedilu, so napisani za en ton nižjo uglasitev - D G C F A D.
Za igranje po tabulaturi morate kitaro torej uglasiti za en ton nižje, če pa boste igrali samo
akorde na standardni uglasitvi, pa glejte zgornjo tabelo, ki prikazuje katere akorde je treba
prijeti namesto navideznih.
================================================================================================
INTRO:  (00:00 - 01:00)
D|--------------|
A|--------------|
F|--------------|  - 2x (z delay efektom)
C|--------------|
G|-9p6----------|
D|-----7--------|
         M
        (E  G#m)  2x
      E                      G#m
        Nikdar več o saj ne more biti res,
      E                      G#m
        nikdar več o saj ne more biti res,
      E                    G#m
        krila so se mi stopila od strahu,
      E                    G#m
        nikoli več ne poletim na njih,
   A      B      A      B      A      B      E
D|-----------------------------------------------------------------------------|
A|-----------------------------------------------------------------------------|
F|-----------------------------------------------------------------------------|
C|-7------9------7------9------7------9--------------9----------------9--------|
G|-7------9------7------9------7------9----------9-7---7----------9-7---7------|
D|-5------7------5------7------5------7------0-0--------------0-0--------------|
    ~~~~~~ ~~~~~~ ~~~~~~ ~~~~~~ ~~~~~~ ~~~~~~×××         M    ×××        ~~~~~~
      G#m               A  B            A
        in nikdar ne izvem, da so samo papir
      B               A            B          E
        zmaji, ki že toliko let visijo nad menoj
   E              C#m          G#m
D|----------------------------------------------|
A|----------------------------------------------|
F|----------------------------------------------|  -- 2x
C|---------9----------4---6-------------------4-|
G|-----9-7---7----4-4---4----------4---6--------|
D|-0-0-------------------------4-4---4----------|
   ×××××××        ×××   ×      ×××   ×
VERZ 1:  (01:00 - 01:23)
      E         C#m      G#m
        Saj že mama govorila je
      E         C#m        G#m
        da z višine se ne vidi vse
   E              C#m          G#m              E              C#m          G#m
D|---------------------------------------------------------------------------------------|
A|---------------------------------------------------------------------------------------|
F|---------------------------------------------------------------------------------------|
C|---------9----------4---6-----------------------------9----------4---6-----------------|
G|-----9-7---7----4-4---4----------4---6------------9-7---7----4-4---4----------4---6----|
D|-0-0-------------------------4-4---4--------7-0-0-------------------------4-4---4------|
   ×××××××        ×××××××      ×××××××          ×××××××        ×××××××      ×××××××
      G#m               A  B            A
        in nikdar ne izveš, da so samo papir
      B                   A
        smehljaji, ki že toliko let
            B           E
        smejijo se s teboj
   G#m                A                    B              A                    B
D|------------------|-----------------------------------|-----------------------------------|
A|------------------|-----------------------------------|-----------------------------------|
F|------------------|-----------------------------------|-----------------------------------|
C|-6h7p6---6--------|--------------------------2---4----|--------------------------2---4----|
G|-------7---7-6-7--|-0-0-12-0-11h12-----\-2-2---2------|-0-0-12-0-11h12-----\-2-2---2---2--|
D|------------------|-----------------------------------|-----------------------------------|
                      ×××    ×             ×××   ×        ×××    ×             ×××   ×
   E
D|-----------------------------|
A|-----------------------------|
F|----/13--11-9----------------|
C|-----------------------2--2--|
G|-7--/11--9--7----------2--2--|
D|-0---0---0--0--0-0-0-0-0--0--|
                 ×××××××      M
REFREN 1:  (01:24 - 01:48)
      E                  A               F#m   E
        Od višine se zvrti, skrij me v svojo dlan
               A                 B       E
        svojo mehko dlan, svojo toplo dlaan.
   E       A                         F#m         E             A             B
D|-----------------------------------------------------------------------------------------|
A|-----------------------------------------------------------------------------------------|
F|---------------------------------------------------------------------------4-4-4--4--4-4-|
C|---------7-7-7--7--7-7-7-7--7--7-7-4-4-4--4--4-2--2-2-2--2-2-7-7-7--7--7-7-4-4-4--4--4-4-|
G|---------7-7-7--7--7-7-7-7--7--7-7-4-4-4--4--4-2--2-2-2--2-2-7-7-7--7--7-7-2-2-2--2--2-2-|
D|-0-0-0-0-5-5-5--5--5-5-5-5--5--5-5-2-2-2--2--2-0--0-0-0--0-0-5-5-5--5--5-5---------------|
   ×××××××
      E                      A                F#m   E
        Vzemi me na svojo stran, skrij me v svojo dlan
                  G#          C#m
        lahko mi vrneš karto še nocoj
               A             E
        hočem le, da me vidijo s teboj.
   E                             A                         F#m         E
D|-----------------------------------------------------------------------------------|
A|-----------------------------------------------------------------------------------|
F|-----------------------------------------------------------------------------------|
C|-2-2---------------------------7-7-7--7--7-7-7-7--7--7-7-4-4-4--4--4-2--2-2-2--2-2-|
G|-2-2-2-2-2--2-2--2-2-----------7-7-7--7--7-7-7-7--7--7-7-4-4-4--4--4-2--2-2-2--2-2-|
D|-0-0-0-0-0--0-0--0-0--00000000-5-5-5--5--5-5-5-5--5--5-5-2-2-2--2--2-0--0-0-0--0-0-|
       ×××××××××××××××××××××××××
   G#            C#m           A                  E
D|--------------------------------------------------------|
A|--------------------------------------------------------|
F|---------------6-6-6--6--6-6----------------------------|
C|-6-6-6--6--6-6-6-6-6--6--6-6-7--7--7--7-7-7--7----------|
G|-6-6-6--6--6-6-4-4-4--4--4-4-7--7--7--7-7-7--7--9p6-----|
D|-4-4-4--4--4-4---------------5--5--5--5-5-5--5------7---|
                                                        M
VERZ 2:  (01:48 - 02:17)
        E  G#m
      E                    G#m
        Krila so se mi stopila od strahu
      E                    G#m
        nikoli več ne poletim na njih
   A      B      A      B      A      B      E
D|------------------------------------------------------------------------|
A|------------------------------------------------------------------------|
F|----------------------------------------------/13--11-9-----------------|
C|-7------9------7------9------7------9-----------------------------2--2--|
G|-7------9------7------9------7------9------7--/11--9--7-----------2--2--|
D|-5------7------5------7------5------7------0-------------00000000-0--0--|
    ~~~~~~ ~~~~~~ ~~~~~~ ~~~~~~ ~~~~~~ ~~~~~~              ××××××××      M
      G#m   A           B
        in nikdar ne izvem
                 A
        da so samo papir
          B           A
        zmaji, ki že toliko let
           B          E
        visijo nad menoj
REFREN 2:  (02:18 - 02:41)
      E                  A               F#m   E
        Od višine se zvrti, skrij me v svojo dlan
               A                 B       E
        svojo mehko dlan, svojo toplo dlaan.
   E       A                         F#m         E             A             B
D|-----------------------------------------------------------------------------------------|
A|-----------------------------------------------------------------------------------------|
F|---------------------------------------------------------------------------4-4-4--4--4-4-|
C|---------7-7-7--7--7-7-7-7--7--7-7-4-4-4--4--4-2--2-2-2--2-2-7-7-7--7--7-7-4-4-4--4--4-4-|
G|---------7-7-7--7--7-7-7-7--7--7-7-4-4-4--4--4-2--2-2-2--2-2-7-7-7--7--7-7-2-2-2--2--2-2-|
D|-0-0-0-0-5-5-5--5--5-5-5-5--5--5-5-2-2-2--2--2-0--0-0-0--0-0-5-5-5--5--5-5---------------|
   ×××××××
      E                      A                F#m   E
        Vzemi me na svojo stran, skrij me v svojo dlan
                  G#          C#m
        lahko mi vrneš karto še nocoj
               A             E
        hočem le, da me vidijo s teboj.
   E                                A                         F#m         E
D|--------------------------------------------------------------------------------------|
A|--------------------------------------------------------------------------------------|
F|--------------------------------------------------------------------------------------|
C|---------2-----2-----2------------7-7-7--7--7-7-7-7--7--7-7-4-4-4--4--4-2--2-2-2--2-2-|
G|-2-2-2-2-2-2-2-2-2-2-2-2-2--------7-7-7--7--7-7-7-7--7--7-7-4-4-4--4--4-2--2-2-2--2-2-|
D|-0-0-0-0-0-0-0-0-0-0-0-0-0-000000-5-5-5--5--5-5-5-5--5--5-5-2-2-2--2--2-0--0-0-0--0-0-|
   ×××××××   ×××   ×××   ××××××××××
   G#            C#m           A
D|------------------------------------------------|
A|------------------------------------------------|
F|---------------6-6-6--6--6-6--------------------|
C|-6-6-6--6--6-6-6-6-6--6--6-6-7------7--7-7-7--7-|
G|-6-6-6--6--6-6-4-4-4--4--4-4-7--7-7-7--7-7-7--7-|
D|-4-4-4--4--4-4---------------5--5-5-5--5-5-5--5-|
                                  ×××
BRIDGE:  (02:41 - 03:17)
   E            G#           E            G#
D|-----------------------------------------------------|
A|-----------------------------------------------------|
F|-----------------------------------------------------|
C|-----------------------------------------------------|
G|-2-2----------6-6----------2-2----------6-6----------|
D|-0-0----------4-4----------0-0----------4-4----------|
   ××××××××××××××××××××××××××××××××××××××××××
D|-----------------------------------------------------------------------------|
A|-----------------------------------------------------------------------------|
F|-----------------------------------------------------------------------------|
C|-----------------------------------------------------------------------------|
G|-2-2-2-2-2-2-3-3-3-3-3-3-3-3-3-3-4-4-4-4-4-4-5-5-5-5-5-5-5-5-5-5-6-6-6-6-6-6-|
D|-0-0-0-0-0-0-1-1-1-1-1-1-1-1-1-1-2-2-2-2-2-2-3-3-3-3-3-3-3-3-3-3-4-4-4-4-4-4-|
   ×××××××××××××××××××××××××××××××××××××××××××××××××××××××××××××××××××××××××××
D|-------------------------------------------------------------------------------------|
A|-------------------------------------------------------------------------------------|
F|-------------------------------------------------------------------------------------|
C|-------------------------------------------------------------------------------------|
G|-7-7-7-7-7-7-7-7-7-7-8-8-8-8-8-8-9-9-9-9-9-9-9-9-9-9-10101010101011111111111111111111|
D|-5-5-5-5-5-5-5-5-5-5-6-6-6-6-6-6-7-7-7-7-7-7-7-7-7-7-8-8-8-8-8-8-9-9-9-9-9-9-9-9-9-9-|
   ×××××××××××××××××××××××××××××××××××××××××××××××××××××××××××××××××××××××××××××××××××
D|-------------------------------------------------|
A|-------------------------------------------------|
F|-------------------------------------------------|
C|-------------------------------------------------|
G|-12-12-12-12-12-12-13-13-13-13-13-13-13-13-13-13-|
D|-10-10-10-10-10-10-11-11-11-11-11-11-11-11-11-11-|
   ×××××××××××××××××××××××××××××××××××××××××××××××
        E                                     A
        Od, od, od, od, od, od  višine se zvrti...
   E                          A
D|----------------------------------|
A|----------------------------------|
F|----------------------------------|
C|-2---2---2---2--2--2--------7\\\\-|
G|-2---2---2---2--2--2--------7\\\\-|
D|-0---0---0---0--0--0--------5\\\\-|
     M   M   M   M  M ~~~~~~~~     M
REFREN 3:  (03:22 - 04:00)
                        F#m   E
        ...skrij me v svojo dlan
               A                 B       E
        svojo mehko dlan, svojo toplo dlaan.
   F#m         E             A             B
D|-------------------------------------------------------|
A|-------------------------------------------------------|
F|-----------------------------------------4-4-4--4--4-4-|
C|-4-4-4--4--4-2--2-2-2--2-2-7-7-7--7--7-7-4-4-4--4--4-4-|
G|-4-4-4--4--4-2--2-2-2--2-2-7-7-7--7--7-7-2-2-2--2--2-2-|
D|-2-2-2--2--2-0--0-0-0--0-0-5-5-5--5--5-5---------------|
      E                      A                F#m   E
        Vzemi me na svojo stran, skrij me v svojo dlan
                  G#          C#m
        lahko mi vrneš karto še nocoj
               A               E
        hočem le, da me vidijooo s teboj.
   E                                A                         F#m         E
D|--------------------------------------------------------------------------------------|
A|--------------------------------------------------------------------------------------|
F|--------------------------------------------------------------------------------------|
C|---------2-----2-----2------------7-7-7--7--7-7-7-7--7--7-7-4-4-4--4--4-2--2-2-2--2-2-|
G|-2-2-2-2-2-2-2-2-2-2-2-2-2--------7-7-7--7--7-7-7-7--7--7-7-4-4-4--4--4-2--2-2-2--2-2-|
D|-0-0-0-0-0-0-0-0-0-0-0-0-0-000000-5-5-5--5--5-5-5-5--5--5-5-2-2-2--2--2-0--0-0-0--0-0-|
   ×××××××   ×××   ×××   ××××××××××
   G#            C#m           A                E
D|----------------------------------------------------------------|
A|----------------------------------------------------------------|
F|---------------6-6-6--6--6-6------------------------------------|
C|-6-6-6--6--6-6-6-6-6--6--6-6-7----------------2-----------------|
G|-6-6-6--6--6-6-4-4-4--4--4-4-7----------------2-----------------|
D|-4-4-4--4--4-4---------------5----------------0-----------------|
                                ~~~~~~~~~~~~~~~~ ~~~~~~~~~~~~~~~~~

trzalica bartrzalica bar

Pesem je naložil

AliAs

Deli z drugimi

Vaš e-naslov ne bo objavljen. * označuje zahtevana polja