Kje imaš kitaro in trzalico? Besedilo in akordi so spodaj :-)

[[ DISCLAIMER ]]

 

Nude - Polja sanj

Intro
e||-------------------------|----------------||
B||-------5----8--6-5-------|----------------||
G||----7----7---------7---7-|----7--9/10\9\7-||
D||---7-7---------------7---|---8---8--------||
A||-5-----------------------|--8-------------||
E||-------------------------|-6--------------||

    d-F-B
e||----------------||
B||----------------||
G||-7---9-10---9-7-|| 3x (2. hitreje)
D||----------------||
A||----------------||
E||----------------||
7
Verse
e||----------------|--------------||
B||-------5--------|--------------||
G||----7----7----7-|----7--9/10\9-|| 2x
D||---7-7------7---|-------8------||
A||-5--------------|--8-----------||
E||----------------|-6------------||

e||---------------------------|------------------------||
B||---------------------------|----------------------5-||
G||-7-------10-----7---10-7---|---7----------7-----7---||
D||--7-7/10---10--8---------7-|--7-7---3----------7----||
A||---------------------------|-5-----3-----8----7-----||
E||--------------6------------|------1-----6----5------||

Chorus
d-B-F-C

Solo
e||--------------|----------------|---------------|-------20----------||
B||--------------|---------15-----|-15-----18--15-|-18--------18-b17r-||
G||----12--14----|-14----------14-|----14---------|----19-------------||
D||-12--------12-|-----12---------|---------------|-------------------||
A||--------------|----------------|---------------|-------------------||
E||--------------|----------------|---------------|-------------------||
trzalica bartrzalica bar

Pesem je naložil

gpodkraj

Deli z drugimi

Vaš e-naslov ne bo objavljen. * označuje zahtevana polja