Kje imaš kitaro in trzalico? Besedilo in akordi so spodaj :-)

[[ DISCLAIMER ]]

 

Primavera - Zmelkoow
//V originalo uporabljajo pol tona nizjo uglasitev kitar.

Uvod (na basu - lahko tudi na kitari)
G------------------------------------------------------------------
D------------------------------------------------------------------
A----------------------------------------------------5-5-5-5-5-----
E----5-5-5-5-5-3-1-0-0-0-0-0-0-0-0-1-3-3-3-3-3-3-3-3---------------

// 100% je stevilo udarcev v tem uvodu kje napacno - to sploh ni 
vazno, toni so pravi, za ostalo pa poslusajte pesem ...

Uvod (na kitari)
-------------------------------------------------------------------------
-------------------------------------------------------------------------
-------------------------------------------------------------------------
-------------------------------------------------------------------------
--7--------8-7---(7)h8-7---7h8p7------7--------8-7---8/10-8-7---7h8p7----
--5----5h8-----------------------5----5----5h8------------------------8--

Kitica:
Med kitico bas igra uvodni riff, na kitari se pa samo vsake toliko casa 
slisi kaksen slide na 4. ali 5. struni. Zadnji krog pred refrenom tudi 
kitara igra basovo linijo, ki pa jo ne zakljuci z D tonom ampak z D5:
---------
---------
---------
---7-7---
---5-5---
---------

Refren:
||---------------------------------------||
||---------------------------------------||
||*-------------------------------------*||
||*-2-----0-2-0--5-----2-----0-2-0------*||
||--0---3--------3-----0---3--------5----||
||----------------------------------3----||

||-------------------------------------------------||
||-------------------------------------------------||
||*-----------------------------------------------*||
||*-2-----0-2-0--5-----0-2-0--------0-2-0---------*||
||--0---3--------3---3--------3---3--------3---5---||
||----------------------------1------------1---3---||

"Solo"
--------------------------------------
---17/12--------17/12-----13/----------
-----------12-------------------------
--------------------------------------
--------------------------------------
--------------------------------------

Besedilo:

 Am                     Em                   G                         D
 ne mi prinest se       ene pijace, ce       ne se bom zaljubu u       prvo toplo stvar
 mrknite sonce,      prinesite oblake, naj  ugasnejo ogenj pod         mojo krvjo    naj 
utihnejo tiste majhne   pernate zivali, naj utihne topli veter naj ne  piha v drevo     Tolko 
 lepih punc in        nikoli ne bom vedu,  katera ima najbolj          toplo telo

 Am  C            Am  G            Am
     Ne me gledat     ne me gledat zdaj
     C            Am  G            Am    C   F    G   Am C F G
     Ne me gledat     ne me gledat zdaj

  Am                         Em                        G                          D
 ugodno prodam tretjino      svojih mozganov, tisoc    dvesto hormonov in eno     zlato ribico      Si bom 
  kupu lovsko pusko in eno   skatlo patronov, bom      streljal na kupida in   njegovo puscico      Bom 
maskiran v jagodo       spijoniral po vrtu, bom v      cisto nizkem letu       prebijal zvocni zid  Tolko 
  lepih punc in            nikoli ne bom vedu,       katera ima najbolj           toplo telo

    Ne me gledat ne me gledat zdaj
    Ne me gledat ne me gledat zdaj

trzalica bartrzalica bar

Pesem je naložil

posnjak

Deli z drugimi

Vaš e-naslov ne bo objavljen. * označuje zahtevana polja