Kje imaš kitaro in trzalico? Besedilo in akordi so spodaj :-)

[[ DISCLAIMER ]]

|-------------------------------------------------------------------| 
| Avtor tabov:Mihec:     Mkoros19@volja.net    www.bigfootmama.tk   | 
|-------------------------------------------------------------------|  

Prozorne sledi

intro/verse

A*
e-0--0----------0------0-0-0--00x--
B-2--2----------2--x-x-2-2-3--22x--
G-2--2--2h3p2-0-2--x-x-2-2-2--22x--
D-2--2----------2--x-x-2-2-2--22x--
A-0--0----------0--x-x-0-2-2--00x--
E----------------------------------

e-0--0----------0---0------0-0-0--00x--
B-2--2--3-2-0---2---2--x-x-2-2-3--22x--
G-2--2--------2-2---2--x-x-2-2-2--22x--
D-2--2----------2---2--x-x-2-2-2--22x--
A-0--0----------0---0--x-x-0-2-2--00x--
E--------------------------------------

A*
N'kol ne greš do konca
Zmer' na pol poti do sonca
Rada bi b'la kraljica
Ostajaš pa sam' svetnica
D
K' misl'š
A
Da se z eno roko vse konča

fis
KO PRVIČ PRESTOPIM
E
ČEZ MEJE VESTI

NE VSTANEM, DOKLER NI
D Dsus4
PROZORNIH SLEDI

Včasih se zdim narisan
Če je spomin zabrisan
V prah bi se sesedla
Ostala boš nevedna

K' mislš'
Da se z eno roko vse konča

 

Pesem je naložil

spletna stran

Deli z drugimi

Vaš e-naslov ne bo objavljen. * označuje zahtevana polja

VIDEO za igranje ob kitari

Please Add Widget from here