Kje imaš kitaro in trzalico? Besedilo in akordi so spodaj :-)

[[ DISCLAIMER ]]

 _______________________________________________________________
|                                                               |
| IZVAJALEC: ..................... Neisha                       |
| PESEM: ......................... Queen of pain / King of pain |
| Live izvedba - Križanke 28.6.2006 s Simfoničnim orkestrom RTV |
| Priredba od STING & POLICE - KING OF PAIN                     |
|_______________________________________________________________|
|                                                               |
|   Vrsta transkripcije: Tabulatura in besedilo z akordi        |
|   Avtor transkripcije: Aleš Godec (AliAs)                     |
|   Domača stran transkripcije: www.trzalica.com                |
|   Datum nastanka transkripcije: 20.08.2006                    |
|_______________________________________________________________|

================================================================================================

Prijemi akordov:
   Bsus4   Bm11   A   G ali G   F#m   D   Em
e|-(0)-----0------0---3-----3---2-----2---0----|
B|--5------3------2---3-----0---2-----3---0----|
G|--4------4------2---4-----0---2-----2---0----|
D|--4------4------2---5-----0---4-----0---2----|
A|--2------2------0---5-----2---4-----0---2----|
E|--------------------3-----3---2---------0----|

================================================================================================

VERZ 1:

Bsus4          G      A       G      A      F#m         G
e|-----------------------------------------------------|
B|-----2-3-5--5------3--5/7--5------2-3-5-3--2---------|
G|-2-4-----------2-4------------2-4-------------4------|
D|-----------------------------------------------------|
A|-----------------------------------------------------|
E|-----------------------------------------------------|

          Bm11           A          Bm11  A    Bm11  A   Bm11  A
There's a little black spot on the sun today
          G       A         G     A     F#m               G
It's the same old thing as yesterday, That's my soul up there
          Bm11       A           Bm11      A    Bm11  A   Bm11  A
There's a black hat caught in a high tree top
            G       A            G          A      F#m               G
There's a flag-pole rag and the wind won't stop, That's my soul up there

REFREN 1:
         D           Em              F#m     G
I have stood here before inside the pouring rain
          D             Em               F#m       G
With the world turning circles running 'round my brain
         D          Em                F#m       G
I guess I'm always hoping that you'll end this reign
          D       Em           F#m      G
But it's my destiny to be the queen of pain

VERZ 2:

       Bm11   A      Bm11    A      Bm11   A     Bm11     A
e|-----------------------------------------------------------|
B|-----2-3-5--5------3--5/7--5------2-3-5--5------3--5/7--5--|
G|-2-4-----------2-4------------2-4-----------2-4------------|
D|-----------------------------------------------------------|
A|-----------------------------------------------------------|
E|-----------------------------------------------------------|

       G      A       G      A      F#m         G
e|-----------------------------------------------------|
B|-----2-3-5--5------3--5/7--5------2-3-5-3--2---------|
G|-2-4-----------2-4------------2-4-------------4------|
D|-----------------------------------------------------|
A|-----------------------------------------------------|
E|-----------------------------------------------------|

          Bm11           A          Bm11  A     Bm11     A        Bm11   A
There's a little black spot on the sun today, That's my soul up there
          G       A         G     A     F#m               G
It's the same old thing as yesterday, That's my soul up there
          Bm11       A           Bm11      A    Bm11  A   Bm11  A
There's a black hat caught in a high tree top, That's my soul up there
            G       A            G          A      F#m               G
There's a flag-pole rag and the wind won't stop, That's my soul up there

REFREN 2:
         D           Em              F#m     G
I have stood here before inside the pouring rain
          D             Em               F#m       G
With the world turning circles running 'round my brain
         D          Em                F#m       G
I guess I'm always hoping that you'll end this reign
          D       Em           F#m      G
But it's my destiny to be the queen of pain

VERZ 3:

       Bm11   A      Bm11    A      Bm11   A     Bm11     A
e|-----------------------------------------------------------|
B|-----2-3-5--5------3--5/7--5------2-3-5--5------3--5/7--5--|
G|-2-4-----------2-4------------2-4-----------2-4------------|
D|-----------------------------------------------------------|
A|-----------------------------------------------------------|
E|-----------------------------------------------------------|

       G      A       G      A      F#m         G
e|-----------------------------------------------------|
B|-----2-3-5--5------3--5/7--5------2-3-5-3--2---------|
G|-2-4-----------2-4------------2-4-------------4------|
D|-----------------------------------------------------|
A|-----------------------------------------------------|
E|-----------------------------------------------------|

           Bm11         A            Bm11        A      Bm11     A        Bm11   A
There's a fossil that's trapped in a high cliff wall, That's my soul up there
          G             A          G    A      F#m               G
There's a dead salmon frozen in a waterfall, That's my soul up there
          Bm11        A              Bm11      A      Bm11     A        Bm11   A
There's a blue whale beached by a springtide's ebb, That's my soul up there
          G           A            G       A     F#m               G
There's a butterfly trapped in a spider's web, That's my soul up there

REFREN 3:
         D           Em              F#m     G
I have stood here before inside the pouring rain
          D             Em               F#m       G
With the world turning circles running 'round my brain
         D          Em                F#m       G
I guess I'm always hoping that you'll end this reign
          D       Em           F#m      G
But it's my destiny to be the queen of pain

SOLO: (A  G  A  G  A  G  A  )  2x

BRIDGE:
A          G           A            G         A
There's a king on a throne with his eyes torn out
           G           A                     A
There's a blind man looking for a shadow of doubt
A          G         A            G       A
There's a rich man sleeping on a golden bed
               G     A
There's a skeleton choking on a crust of bread

       Bm11   A      Bm11    A      Bm11   A     Bm11     A
e|-----------------------------------------------------------|
B|-----2-3-5--5------3--5/7--5------2-3-5--5------3--5/7--5--|
G|-2-4-----------2-4------------2-4-----------2-4------------|
D|-----------------------------------------------------------|
A|-----------------------------------------------------------|
E|-----------------------------------------------------------|

       G      A       G      A      F#m         G
e|-----------------------------------------------------|
B|-----2-3-5--5------3--5/7--5------2-3-5-3--2---------|
G|-2-4-----------2-4------------2-4-------------4------|
D|-----------------------------------------------------|
A|-----------------------------------------------------|
E|-----------------------------------------------------|

VERZ 4:
           Bm11    A          Bm11      A      Bm11     A        Bm11   A
There's a red fox torn by a huntsman's pack, That's my soul up there
            G           A            G     A      F#m               G
There's a black-winged gull with a broken back, That's my soul up there
           Bm11                           Bm11
There's a little black spot on the sun today
          G         A       G     A     F#m               G
It's the same old thing as yesterday, That's my soul up there

REFREN 4:
         D           Em              F#m     G
I have stood here before inside the pouring rain
          D             Em               F#m       G
With the world turning circles running 'round my brain
         D          Em                F#m       G
I guess I'm always hoping that you'll end this reign
          D       Em           F#m      G
But it's my destiny to be the queen of pain

(D   Em   F#m   G   ) 8x

trzalica bartrzalica bar

Pesem je naložil

AliAs

Deli z drugimi

Vaš e-naslov ne bo objavljen. * označuje zahtevana polja