Kje imaš kitaro in trzalico? Besedilo in akordi so spodaj :-)

[[ DISCLAIMER ]]

 ___________________________________________________________
|  _______________________________________________________  |
| |                                                       | |
| | IZVAJALEC: .............. Srečna mladina              | |
| | PESEM: .................. Še ena snežna kepa          | |
| | ALBUM: .................. Pa srečno v prihodnosti!    | |
| | LETO IZIDA: ............. 2010                        | |
| | SPLETNA STRAN: .......... www.srecnamladina.si        | |
| |_______________________________________________________| |
| |                                                       | |
| |           Transkripcija: AliAs / maj, 2015            | |
| |                                                       | |
| |            w w w . t r z a l i c a . c o m            | |
| |_______________________________________________________| |
|___________________________________________________________|
============================================================================================================
LEGENDA ZNAKOV:
        × = dušenje z dlanjo
       ...= tremolo ubiranje
        p = pull off
        h = hammer on
        / = slide up
        \ = slide down
        Kitara L = Levi zvočnik (Vlado)
        Kitara D = Desni zvočnik (Peter)
============================================================================================================
www.trzalica.com       www.trzalica.com       www.trzalica.com       www.trzalica.com       www.trzalica.com
============================================================================================================
Riff 1:
e|-------------------------|
H|-------------------------|  Obe kitari
G|-------------------------|  8x
D|-2-2-2-2-2-2-2-2-2-2-2-2-|  Dušenje z dlanjo
A|-0-0-0-0-0-0-4-4-4-4-4-4-|
E|-------------------------|
Riff 2:
e|---------------------------------|
H|---------------------------------|  Obe kitari
G|---------------------------------|  8x
D|----4------------------------2h4-|
A|----------0h2-0-2--0--2--2h4-----|
E|-2-----2-------------------------|
                                                                                             Trzalica.COM
Riff 3:
e|----------------------|-------------------|
H|----------------------|-------------------|  Kitara L
G|----------------------|-------------------|  2x
D|-2----2------2----2---|-------------------|
A|-0----2---4--0----2---|----4--4--4-4-4-4--|
E|----------------------|-0--2--2--2-2-2-2--|
                             ***********
e|-----/12--9------9-------12--9------9--14--\--|-------------------|
H|-------------12-----10----------12------------|-------------------|
G|----------------------------------------------|-------------------|
D|-2--------------------------------------------|-------------------| \
A|-0--------------------------------------------|----4--4--4-4-4-4--|  |
E|----------------------------------------------|-0--2--2--2-2-2-2--|  |
                                                  ****************     |  Kitara D
                                                                       |  Pitch Shift efekt
e|-----/12--9------9-------12--9------9--16--\--|-------------------|  |
H|-------------12-----10----------12------------|-------------------|  |
G|----------------------------------------------|-------------------| /
D|-2--------------------------------------------|-------------------|
A|-0--------------------------------------------|----4--4--4-4-4-4--|
E|----------------------------------------------|-0--2--2--2-2-2-2--|
                                                  ****************
                                                                                             Trzalica.COM
Riff 2.2:
e|---------------------------------|
H|---------------------------------|  Kitara L
G|---------------------------------|  4x
D|----4------------------------2h4-|
A|----------0h2-0-2--0--2--2h4-----|
E|-2-----2-------------------------|
e|----9----------16------14---------19---------9----------16------14---------19----19-|
H|-7-----7-7--14-----12------12-12------17--7-----7-7--14-----12------12-12-----17----|  Kitara D
G|------------------------------------------------------------------------------------|  2x
D|------------------------------------------------------------------------------------|
A|------------------------------------------------------------------------------------|
E|------------------------------------------------------------------------------------|
Riff 3.2:
e|--------------------------------------------------|
H|--------------------------------------------------|
G|--------------------------------------------------|
D|-2----2------2----2-------------------------------|
A|-0----2---4--0----2-------4------------4----------| \
E|-----------------------0--2---------0--2----------|  |
                                                       |  Kitara L
e|-------------------------------------|               |
H|-------------------------------------|              /
G|-------------------------------------|             /
D|-2----2------2----2------------------|
A|-0----2---4--0----2---4--4-----------|
E|-------------------------2-----------|
                                                                                             Trzalica.COM
e|-----/12--9------9-------12--9------9--14---------14-\---|
H|-------------12-----10----------12-----------------------|
G|---------------------------------------------------------|
D|-2-------------------------------------------------------|
A|-0-------------------------------------------------------| \
E|---------------------------------------------------------|  |
                                                              |  Kitara D
e|-----/12--9------9-------12--9------9--16----|              |  Pitch Shift efekt
H|-------------12-----10----------12-----------|             /
G|---------------------------------------------|            /
D|-2-------------------------------------------|
A|-0-------------------------------------------|
E|---------------------------------------------|
Riff 4:
e|(16)--14---12---11---7--9----------------------|
H|----------------------------9b--r--7-----------|
G|---------------------------------------6-------|              \
D|-----------------------------------------------|               \
A|-----------------------------------------------|                |
E|-----------------------------------------------|                |  Kitara D
                                                                  |  Pitch Shift efekt
e|-------------------------------------------------------------|  |  z volume gumbom
H|-------------------------------------------------------------| /
G|-------------------------------------------------------------|
D|-7---9---4----6--7--9--6--7--9--6--7---9--7--6--7---6---4----|
A|-------------------------------------------------------------|
E|-------------------------------------------------------------|
                                                                                             Trzalica.COM
Riff 4.2:
e|--------------|-----------------------------------|----------------|
H|--------------|-----------------------------------|----------------|  Kitara L
G|----------2---|-----------------------------------|------------2---|
D|----2-------2-|-----------------------------2-----|----2---------2-|
A|-0-----0------|-4---4-2-0-------0-2-4---4-2---3---|-0-----0--------|
E|--------------|-----------2---2-------------------|----------------|
e|-----------------------|
H|-----------------------|
G|-6---------6/----------|
D|-----------------------|                                                    \
A|-----------------------|                                                     \
E|-----------------------|                                                      \
                                                                                 \
e|-14--------------14--------------14--------------12---------------------|       \
H|----14----14--14----14----14--14----14----14--14----13----12-12h13p12---|        |
G|-------14--------------14--------------14--------------14------------14-|  3x    |
D|------------------------------------------------------------------------|        |
A|------------------------------------------------------------------------|        |
E|------------------------------------------------------------------------|        |
                                                                                   |  Kitara D
e|--------0------------0-------------0--------------------|                        |
H|----------0------------0------10-----10-------17----17--|                        |
G|------2-----------6---------9----9---------14----14-----|                        |
D|----2-----------7---------7-------------14--------------|                        |
A|-0------------0-----------------------------------------|                        |
E|--------------------------------------------------------|                        |
                                                                                   |
e|-17----17----17----17----19----19----19----19----21----21----21----21.......-|  /
H|---17----17----17----17----17----17----17----17----17----17----17----17.....-| /
G|-----18----18----18----18----18----18----18----18----18----18----18----18...-|
D|-----------------------------------------------------------------------------|
A|-----------------------------------------------------------------------------|
E|-----------------------------------------------------------------------------|
                                                                                             Trzalica.COM
Riff 2.3:
e|---------------------------------|
H|---------------------------------|  Kitara L
G|---------------------------------|  8x
D|----4------------------------2h4-|
A|----------0h2-0-2--0--2--2h4-----|
E|-2-----2-------------------------|
e|-----14---------------------------------12h14-|-----14----------------------|
H|-------------10h12-10-12--10--12--12h14-------|-------------10h12-10-12b----|
G|-11------11-----------------------------------|-11------11------------------|
D|----------------------------------------------|-----------------------------|
A|----------------------------------------------|-----------------------------| \
E|----------------------------------------------|-----------------------------|  \
                                                                                  |
e|-14---17---12--14------17--19--12--0--12--0--12--0--12--0--14----\----|         |  Kitara D
H|-------------------14-------------------------------------------------|         |  Pitch Shift efekt
G|----------------------------------------------------------------------|        /
D|----------------------------------------------------------------------|       /
A|----------------------------------------------------------------------|
E|----------------------------------------------------------------------|
                                                                                             Trzalica.COM
Riff 5:
Obe kitari igrata akorde:
    F#m - 2 4 4 2 2 2
    D7  - X X 0 2 1 2
    C/5 - X 3 4 5 X X
    C#  - X 4 6 6 6 X
Riff 5.2:
Kitara L igra akorde: F#m  D7  C/5  C#
e|--------------------------------------------------------------------------|
H|--------------------------------------------------------------------------|
G|--------------------------------------------------------------------------|
D|--------------------------------------------------------------------------|
A|-4...3.4..3.4..3.4..5...4.5..4.5..4.5..6...5.6..5.6..5.6...11....12..11..-| \
E|--------------------------------------------------------------------------|  \
                                                                                |
e|----------------------------------------------------|                         |  Kitara D
H|----------------------------------------------------|                         |
G|----------------------------------------------------|                        /
D|----------------------------------------------------|                       /
A|-9....10..11..12....13..14..15....19...21..16....\.-|                      /
E|----------------------------------------------------|
                                                                                             Trzalica.COM
Riff 6:
e|-----------------------------------------------------------------------------------------------|
H|-----------------------------------------------------------------------------------------------| Obe
G|-9-9-6--6-6-4-6--6-6-6-11-11-6--6-6-4-6--6-6-6-12-12-9--9-9-7-9--9-9-9-14-14-9--9-9-7-9--9-9-9-| kitari
D|-9-9-6--6-6-4-6--6-6-6-11-11-6--6-6-4-6--6-6-6-12-12-9--9-9-7-9--9-9-9-14-14-9--9-9-7-9--9-9-9-| 2x
A|-7-7-4--4-4-2-4--4-4-4-9--9--4--4-4-2-4--4-4-4-10-10-7--7-7-5-7--7-7-7-12-12-7--7-7-5-7--7-7-7-|
E|-----------------------------------------------------------------------------------------------|
Riff 6.2:
e|-----------------------------------------------------------------------------------------------|
H|-----------------------------------------------------------------------------------------------| Kitara L
G|-9-9-6--6-6-4-6--6-6-6-11-11-6--6-6-4-6--6-6-6-12-12-9--9-9-7-9--9-9-9-14-14-9--9-9-7-9--9-9-9-| 2x
D|-9-9-6--6-6-4-6--6-6-6-11-11-6--6-6-4-6--6-6-6-12-12-9--9-9-7-9--9-9-9-14-14-9--9-9-7-9--9-9-9-|
A|-7-7-4--4-4-2-4--4-4-4-9--9--4--4-4-2-4--4-4-4-10-10-7--7-7-5-7--7-7-7-12-12-7--7-7-5-7--7-7-7-|
E|-----------------------------------------------------------------------------------------------|
e|-------------------------X----------------|----X----X---------------------X----------------|
H|-------------------------X----------------|----X----X---------------------X----------------|
G|---------9-11-9------9-9-X-11-11-11-11-11-|----X-12-X-12-14-12------12-12-X-14-14-14-14-14-|
D|-11--11----------11------X----------------|-14-X----X-----------14--------X----------------|
A|-11--11----------11------X----------------|-14-X----X-----------14--------X----------------| \
E|-------------------------X----------------|----X----X---------------------X----------------|  \
                                                                                                 |
e|----X----X---------------------X-------14-14----|                                              |
H|----X----X---------------------X----------------|                                              |
G|----X-12-X-12-14-12------12-12-X-12/14-------12-|                                              |
D|-14-X----X-----------14--------X----------------|                                              | Kitara D
A|-14-X----X-----------14--------X----------------|                                              |
E|----X----X---------------------X----------------|                                              |
                                                                                                 |
e|-------------------------X-14-14-14-14-14-----------------------------------|                  |
H|-------------------------X----------------------------------------11b--11b--|                  |
G|---------9-11-9------9-9-X-11-11-11-11-11---------9-11-9------9-9-11b--11b--|                  |
D|-11--11----------11------X----------------11--11----------11----------------|                  |
A|-11--11----------11------X----------------11--11----------11----------------|                 /
E|-------------------------X--------------------------------------------------|                /
                                                                                              /
e|----X----X---------------------X-------------------X----X--------------------------|       /
H|----X----X---------------------X-------15-15-------X----X-----------14b--14b--14b--|      /
G|----X-12-X-12-14-12------12-12-X-14/16-------16----X-12-X-12-14-12--14b--14b--14b--|     /
D|-14-X----X-----------14--------X----------------14-X----X--------------------------|    /
A|-14-X----X-----------14--------X----------------14-X----X--------------------------|
E|----X----X---------------------X-------------------X----X--------------------------|
                                                                                             Trzalica.COM
Riff 7:
e|--------------|----------|
H|--------------|----------|
G|--------------|----------|  Obe kitari
D|-4--4--4---4--|-4---4----|
A|-4--4--4---4--|-4---4----|
E|-2--2--2-0-2--|-2-0-2----|
Riff 7.2:
e|----------|
H|----------|
G|----------|  Kitara L
D|-4---4----|
A|-4---4----|
E|-2-0-2----|
e|------------------|----------|
H|------------------|----------|
G|------------------|----------|  Kitara D
D|------------------|----------|
A|-9--9---9-7-9-\---|-9-7-9-\--|
E|------------------|----------|
                                                                                             Trzalica.COM
Riff 8:
e|------------|-----|
H|------------|-----|
G|------------|-----|  Obe kitari
D|-4--4-------|-4---|
A|-4--4-------|-4---|
E|-2--2--0----|-2---|

trzalica bar

trzalica bar

Pesem je naložil

AliAs

Deli z drugimi

Vaš e-naslov ne bo objavljen. * označuje zahtevana polja