Kje imaš kitaro in trzalico? Besedilo in akordi so spodaj :-)

[[ DISCLAIMER ]]

Besedila in akordi na TrzaliciVse verzije te pesmi:      Soldat (tab)       Soldat (gp)

trzalica bar

Pomaranča - Soldat

G|-------5---5-5---3---3-3-|
D|-------5---5-5---3---3-3-|
A|---1---3---3-3---1---1-1-|
E|-3---3-------------------|

C D# F G# A#

konec
C A# G# G# G F

Solo1
B|----------------------------8b--8-6-------------------------------------------
G|-----------------5--7-8--5----------8-7h8p7----7h8p7----7h10p7----7h8p7/5---5-
D|--------------------------------------------10-------10--------10---------8---
A|-3--5-6--3--5-6---------------------------------------------------------------
E|------------------------------------------------------------------------------

Solo2
B|--------------------------------------8b--8-6-------------------------
G|-----------------5--7-8--5--5--7-8--5---------8-7h8p7----7h8p7/5---5--
D|------------------------------------------------------10---------8----
A|-3--5-6--3--5-6-------------------------------------------------------
E|----------------------------------------------------------------------

E|----------------------------6------------------3---
B|-----------------------6b------6--4h6p4-3--4-3-----
G|---------------3--5--8---------------------------5-
D|---------3--5--------------------------------------
A|-3--5-6--------------------------------------------
E|---------------------------------------------------

Solo3
E|--------------------------------------------10--11--13--13b--11--10h11p10----------
B|------------------------------------11--13--------------------------------11----13-
G|-----------------------------10--12------------------------------------------12----
D|-------------------10--12-13-------------------------------------------------------
A|-3--5-6--8--10-13------------------------------------------------------------------
E|-----------------------------------------------------------------------------------
trzalica bartrzalica bar

Pesem je naložil

matej

Deli z drugimi

Vaš e-naslov ne bo objavljen. * označuje zahtevana polja