Kje imaš kitaro in trzalico? Besedilo in akordi so spodaj :-)

[[ DISCLAIMER ]]

Besedila in akordi na TrzaliciVse verzije te pesmi:      Sranje (tab) v1       Sranje (tab) v2

trzalica bar

 

 Izvajalec: ........... Niet
 Naslov: .............. Sranje
 Album: ............... Lep dan za smrt
 Uglasitev............. Standardna (E-A-D-G-B-e)
 ____________________________________________________________    
 
 Transkripcijo izdelal: .... Kortnik@gmail.com [Šalečan] z F(r)iendovo pomočjo 😀
               
 
 Vrsta transkripcije: ...... Besedilo z akordi + tabulatura 
 Domača stran: ............. www.trzalica.com
===========================================================
www.trzalica.com    www.trzalica.com    www.trzalica.com    ===========================================================
Intro (2X):

e|-----------------------------|---------------------------|-----|
B|-----------------------------|---------------------------|-----|
G|-14-14-14-14--16-16--13--13--|-14-14-14-14--16-16--13-13-|-----|
D|-----------------------------|---------------------------|-----|
A|-----------------------------|---------------------------|--7--|
E|-----------------------------|---------------------------|--5--|

A5  C5  G5  D5 C5
A5  C5  G5  D5 C5

A5         C5 
Oskrunjena nedolžnost, 
G5          D5  
tako veliki obeti. 
A5           C5
Golo otroško truplo z 
G5   D5  
brizgo v žili. 

A5       C5
Srhljivo šelestenje 
G5      D5 
krvavih listov.
A5      C5 
Zasopla telesa,
G5         D5 
čakanje na smrt. 

e|-------------------------------|
B|-14-14-14-14--15-15--12--12----|
G|-14-14-14-14--16-16--13--13----|
D|-------------------------------|
A|-------------------------------|
E|-------------------------------| (4X)

Deževna so jutra in 
rdeča je svetloba. 
Črni cvet na dlani, 
le kje je pot v raj? 

Temne so ulice, 
iskala je ljubezen. 
Otrok s skodelico 
polno krvi. 

Outro:
e|-------------10----------|------------------|------------------|-----------------|--------|
B|-10-13-12-13----13-12-13-|---10-9-10-12--12-|---10-9-10-12--12-|-12-10-9---------|--------|
G|-------------------------|-9----------------|-9----------------|---------9-11--9-|--------|
D|-------------------------|------------------|------------------|-----------------|--------|
A|-------------------------|------------------|------------------|-----------------|-12---7-|
E|-------------------------|------------------|------------------|-----------------|------5-|

================================================================================================
www.trzalica.com    www.trzalica.com    www.trzalica.com    www.trzalica.com    www.trzalica.com
================================================================================================
trzalica bartrzalica bar

Pesem je naložil

Salecan

Deli z drugimi

Vaš e-naslov ne bo objavljen. * označuje zahtevana polja