Kje imaš kitaro in trzalico? Besedilo in akordi so spodaj :-)

[[ DISCLAIMER ]]

 ___________________________________________________________
|  _______________________________________________________  |
| |                                                       | |
| | IZVAJALEC: .............. Siddharta feat. Damir Urban | |
| | PESEM: .................. Strele v maju               | |
| | ALBUM: .................. Ultra                       | |
| | LETO IZIDA: ............. 2015                        | |
| | SPLETNA STRAN: .......... www.siddharta.net           | |
| |_______________________________________________________| |
| |                                                       | |
| |           Transkripcija: AliAs / maj, 2017            | |
| |                                                       | |
| |            w w w . t r z a l i c a . c o m            | |
| |_______________________________________________________| |
|___________________________________________________________|
=============================================================
Prijemi akordov:
      Am     - X 0 2 2 1 0
      Asus2  - X 0 2 2 0 0
      C      - X 3 2 0 1 0
      Cadd9  - X 3 2 0 3 0
      D      - X X 0 2 3 2
      D7     - X X 0 2 1 2
      Em     - 0 2 2 0 0 0  ali  0 2 2 0 0 3
      Emadd9 - 0 2 4 0 0 0  ali  0 2 2 0 0 2
      G      - 3 2 0 0 0 3
      
============================================================
    Trzalica.com        Trzalica.com        Trzalica.com 
============================================================
                                                            Trzalica.COM
   Em              Emadd9
e|---------------------------------|
H|---------------------------------|
G|---------------------------------|
D|-----5-----5-----4-----4-----4---|
A|---2-----2-----2-----2-----2---2-|
E|-0-----0-----0-----0-----0-------|
                                                            Trzalica.COM
   Cadd9           C               Am              Asus2
e|-----------------------------------------------------------------|
H|-----------------------------------------------------------------|
G|-----7-----7-----5-----5-----5-------5-----5-----4-----4-----4---|
D|---5-----5-----5-----5-----5---5---2-----2-----2-----2-----2---2-|
A|-3-----3-----3-----3-----3-------0-----0-----0-----0-----0-------|
E|-----------------------------------------------------------------|
                                                            Trzalica.COM
   Em              Emadd9
e|---------------------------------|
H|---------------------------------|
G|---------------------------------|
D|-----5-----5-----4-----4-----4---|
A|---2-----2-----2-----2-----2---2-|
E|-0-----0-----0-----0-----0-------|
                                                            Trzalica.COM
   Cadd9           C               D7
e|-----------------------------------------------------------------|
H|-----------------------------------------------------------------|
G|-----7-----7-----5-----5-----5-------5-----5-----5-----5-----5---|
D|---5-----5-----5-----5-----5---5---7-----7-----7-----7-----7---7-|
A|-3-----3-----3-----3-----3-------5-----5-----5-----5-----5-------|
E|-----------------------------------------------------------------|
                                                            Trzalica.COM
                                                            Trzalica.COM
     Em     Emadd9
      Če bi kje
     Em     Emadd9
      ujeli me
     Cadd9     C
      brez skrbi
     Am       Asus2
      jaz molčim.
     Em     Emadd9
      Tisto kar
     Em      Emadd9
      v meni je
     Cadd9   C   D7
      mi ne mooo---rejo vzet, ker
                                                            Trzalica.COM
    Em
      Vselej mi v jeziku istem sanjamo.
                                         Am             C
      Pred nami morje nad nami isto je nebo, ki raje objeme daje.
    Em
      Ali slišiš ko droni preletavajo.
                                    C                  D7
      Evropa joka kot da mali je otrok, a v naju so strele v maju
                                                            Trzalica.COM
      C        Am          Em   G
      Hodimo skupaj skozi noč
      C        Am      Em      G
      Naši glasovi plašijo zveri
      C         D         Em   G
      Skupaj ostanemo ljudje
      Hm G   Em     Hm G Em
      In ta svet usta-vi-mo
         Hm G C
      Zdru-že-no
                                                            Trzalica.COM
     Em   Emadd9
      Ako te
     Em   Emadd9
      uhvate
     Cadd9    C
      ne boj se
     Am     Asus2
      blizu smo
                                                            Trzalica.COM
     Em        Emadd9
      U predgradja
     Em        Emadd9
      na mostove
     Cadd9   C   D7
      mi stižemo   pogledaj jer
                                                            Trzalica.COM
    Em
      Mi sanjamo ptice i obale
                                 Am             C
      a iznad nas modro se preljeva nebo traži najbolje od nas
    Em
      Dok očevi izdaju sinove od kostiju nastaju pustinje
       C           D7
      Tko si ti a tko sam ja
                                                            Trzalica.COM
      C        Am          Em   G
      Zajedno hodamo kroz noć
      C        Am    Em           G
      Naši su glasovi  jači od zvjeri
      C        D    Em         G
      Zajedno možemo  ostati ljudi
        Hm G Em  Hm   G     Em
      i možemo zaustaviti svijet
      Hm G  C
      Zajedno
                                                            Trzalica.COM
                                                            Trzalica.COM
   Em                Em                Em
e|-----------------|-----------------|-----------------|
H|-----------------|-----------------|-----------------|
G|-----------------|-----------------|-----------------|
D|-----------------|-----------------|-----------------|
A|-----------------|-----------------|-2-2-2-2-2-2-2-2-|
E|-0--3--0--3--0-3-|-0--3--0--6--0-7-|-0-0-0-0-0-0-0-0-|
                                       ***************
                                                            Trzalica.COM
                                                            Trzalica.COM
      C        Am          Em   G
      Hodimo skupaj skozi noč
      C        Am      Em      G
      Naši glasovi plašijo zveri
      C         D         Em   G
      Skupaj ostanemo ljudje
      Hm G   Em     Hm G Em
      In ta svet usta-vi-mo
         Hm G C
      Zdru-že-no

 

Pesem je naložil

AliAs

Deli z drugimi

Vaš e-naslov ne bo objavljen. * označuje zahtevana polja

VIDEO za igranje ob kitari

Please Add Widget from here