Kje imaš kitaro in trzalico? Besedilo in akordi so spodaj :-)

[[ DISCLAIMER ]]

trzalica bar

 Izvajalec: ..................... Big Foot Mama
 Skladba: ....................... Buldožer
 Transkripcijo izdelal .......... blah
 Domača stran transkripcije ..... www.trzalica.com

================================================================================

BIG FOOT MAMA
BULDOŽER
NOVA PRAVILA

INTRO:

Ritem kitara: 
je pri tej pesmi dokaj težka ker mora riff bit bolj v ragge style 😉 . Treba je komad dobro poslušat.

Am 2x

Ritem (igra akorde) in Solo (tablature-lep distortion oz. overdrive) kitara:

   Am C G Am Am C     G Am
e|-----------|-----------|--------------|--------------|-------------|-----------|-------|-------------|
B|-----------|-----------|--------------|--------------|-------------|-----------|-------|-------------|
G|-----------|-----------|--------------|--------------|-------------|-----------|-------|-------------|
D|-----------|-----------|--------------|--------------|-------------|-----------|-------|-------------|
A|-----------|----7-5-3--|----0-5-3-2---|---0-32-0-0---|-------------|----7-5-3--|--0-5--|--0-3-2-0-0--|
E|--5-8-7-5--|--5--------|--------------|--------------|----5-8-7-5--|--5--------|-------|-------------|

VERZI in Besedilo: 
(solo in ritem kitara-razlika je v tem da ritem igra odprte akorde isto kot v intro, solo pa igra dušene bare akorde)

Am              C
Mala Lelja gledala,
      G         Am
pada zvezda iz neba
        Am        C
Mala Lejla si želi,
      G          Am        
da jo solza ne duši

A kje je dom, a kje je dom
Zamenjala je za bombon
Gleda Lejla tuj ekran
Tuj ekran s solzam postlan

Naslednjo kitico pa igrata obe kitari isto na odprtih akordih:

Am        C                G          
Lala lala la, la lala lala la
          Dm               Am
lala lala la, la lala lala la
          C                G
Lala lala la, la lala lala la
          F      E         Am
lala lala la, la lala lala la

Am C
Otroška igra zemljo krast
G Am
Zemljo krast za svojo rast
Am     C
Nima Lejla s čim vzet
G   Am
Ni moči se za upret

Am               C
Liljani so šli v kri
          G          Am
A njen medvedek v smeti
      Am        C
Obrne se in zamiži
         G           E
V svetu pravljic zaželi

Refren: (Obe kitari igrata odprte akodre)

        C         G
KO BOM 'MELA BULDOŽER
      Dm           Am
BOM LETELA V PRAVO SMER
        C         G
KO BOM 'MELA BULDOŽER
        Dm           Am
BOM ZGRADILA V SVETU MIR

Am        C                G          
Lala lala la, la lala lala la
          Dm               Am
lala lala la, la lala lala la
          C                G
Lala lala la, la lala lala la
          F      E         Am
lala lala la, la lala lala la

Lejla ni več dekl'ca
Novi dom Slovenija 
Lepota njena očarala
Naslovno stran hit medija

Lejla se več ne boji 
Njo vee solza ne duši
Le ko prižge si cigaret
Se ji v misli vrne spet...

Refren: 4x

        C         G
KO BOM 'MELA BULDOŽER
      Dm           Am
BOM LETELA V PRAVO SMER
        C         G
KO BOM 'MELA BULDOŽER
        Dm           Am
BOM ZGRADILA V SVETU MIR

Po refrenu ki se ponovi 4x sledi SOLO+refren: 

SOLO: ritmično zelo težek solo, ugotovil ga je AliAs (vsaka čast!)... 
tam ko so trije vprašaji nisem prišel ne jas gor kaj se tam igra, pa tudi AliAs ne...
RITEM: je isti kot v zadnjem refrenu.
b = bend up za 1/2 tona
t = tremolo
r = release bend
 = slide down

e|----------------------------------------------------------|
B|-12b-v--12br-10----------------15----15-17-13-15-13-------|
G|----------------12----12-14-12----------------------14-\--|
D|----------------------------------------------------------|
A|----------------------------------------------------------|
E|----------------------------------------------------------|

e|-----------------------------------------------------12--15--17-br-br-br-v--|
B|-----------------------------------------10--13--15-------------------------|
G|-/12--9-9-----------------------9-9--12-------------------------------------|
D|-----------12-12--10-10--12-12----------------------------------------------|
A|----------------------------------------------------------------------------|
E|----------------------------------------------------------------------------|

e|-12-15-12--?------16----16---------------------------------|
B|-----------?---15----15----15\-----------------------------|
G|-----------?---------------------5/10-12-b-v------10-------|
D|----------------------------------------------12------12\--|
A|-----------------------------------------------------------|
E|-----------------------------------------------------------|

e|------------------------------------------------------------------------------------|
B|--------------------------------------------13-15-17----13-15-13-15-17-15-13-15-17--|
G|-/12--9-9-----------------------9-9--12--14----------14-----------------------------|
D|-----------12-12--10-10--12-12------------------------------------------------------|
A|------------------------------------------------------------------------------------|
E|------------------------------------------------------------------------------------|

e|------------------------------------------------|
B|-/13---13-15-13-------15----15-17-13-15-13------|
G|----------------12-------------------------14---|
D|------------------------------------------------|
A|------------------------------------------------|
E|------------------------------------------------|

e|--------------------------------------------------------------|
B|-----------10-13--15-13-15-17-15-13-15-13-12-13---------------|
G|-/12-9-12---------------------------------------14--12-14-----|
D|--------------------------------------------------------------|
A|--------------------------------------------------------------|
E|--------------------------------------------------------------|

trzalica bar

trzalica bar

Pesem je naložil

blah

Deli z drugimi

Vaš e-naslov ne bo objavljen. * označuje zahtevana polja