Kje imaš kitaro in trzalico? Besedilo in akordi so spodaj :-)

[[ DISCLAIMER ]]

Besedila in akordi na TrzaliciVse verzije te pesmi:      Indexi - Sve ove godine (tab)       Indexi - Sve ove godine (gp)       Mi2 - Sve ove godine (tab)

trzalica bar

Sve Ove Godine

Am    
Jedna mala pjegava plava
D
Ne da mi mira
G                        C           G
Uvek kad je sretnem hoce nesto da mi da
 
Kad je pitam sto bi mi dala 
Nece da kaze
Samo klimne glavom kao da bi dala sve
 
Am
Idi mala, idi sto prije
F
Jos si mala. vrijeme ti nije
D                            G
Bjezi mala prije no to padne noc

    G       C      G                C
    Sve ove godine dala bi za jednu noc
       G                C
    Al mene nikad ne bi imala
    G                   C
    Jer ja moram drugoj poc

Uvod:
    G7   G7     C     C
E|--1---1-1-1---0---0-0-0-----------------
H|--0---0-0-0---1---1-1-1-----------------
G|--0---0-0-0---0---0-0-0----------------- 
D|--0---0-0-0---2---2-2-2-----------------
A|--2---2-2-2---3---3-3-3-----------------
E|--3-------------------------------------

E|-----------------------------------------------------------------
H|-----------------------------------------------------------------
G|-------0---------0------0---------0------0--------0----------0---
D|---2-3---------3-----------2-3-4------3-----------7--------------
A|-------------------3-----------------------3---------7-8-9-------
E|----------3-----------------------3--------------------------3---

E|-------------0--1-2-3----1-3-----------------------------|
H|-----------------------------1---------------------------|
G|-----0--------------0------------------------------------|
D|--3------------------------------------------------------|
A|-------3-------------------------------------------------|
E|-----------------------------------3--2--0---------------|

trzalica bartrzalica bar

Pesem je naložil

neznan avtor

Deli z drugimi

Vaš e-naslov ne bo objavljen. * označuje zahtevana polja