Kje imaš kitaro in trzalico? Besedilo in akordi so spodaj :-)

trzalica bar

Author/Artist: Big Foot Mama
Title: Mala Nimfomanka
Album: Nova Pravila
Transcribed by: žiga - FGL
Email: cerpius@yahoo.com

------------------------------------------------------------------------------
-/5-5-5--/5-5-5--/5-5-5--------2-0--------------------------------------------
-/4-4-4--/4-4-4--/4-4-4--2-0---2-0--------------------------------------------
-----------------------------2------2-2---2--2-2---2--2-2---2--2-2------------
------------------------------------2-2-2-2--2-2-2-2--2-2-2-2--2-2------------
------------------------------------0-0-3-0--0-0-3-0--0-0-3-0--0-0-3vv--------
                                                                              
Ta del se ponavlja skozi vso pesem,
med kitico...

Lepo se vede lepo se obnaša.

V šolo hod', kretenov ne prenaša.
(Takoj za zgornjim verzom sledi)
   /   
  /
--15vvvvv------------------------------------------------------------5-5------
---------------------------------------------------------------------5-5------
-------------2------------------------------2-2---2-2---2-2---2-2-------------
-------------2------------------------------2-2-2-2-2-2-2-2-2-2-2-------------
-------------0------------------------------0-0-3-0-0-5-0-0-3-0-0-------------
------------------------------------------------------------------------------
             Dviga nos, do konca je ošabna.

E
Pravjo da je, sam' zvezdam uporabna...
 
                                                                

------5-5------5-5-------7-7-------7-7----------------------------------------
------5-5------5-5-------7-7-------7-7----------------------------------------
--7b9------7b9------9b11------9b11--------------------------------------------
------------------------------------------2-2---2-2---2-2---2-2---------------
------------------------------------------2-2-2-2-2-2-2-2-2-2-2---------------
------------------------------------------0-0-3-0-0-3-0-0-3-0-0-3vv-----------
Le zakaj, le zakaj, le zakaj, le zakaj, le zakaj ne morem več od tebe nazaj?!?

------------------------------------------------------------------------------
--15---------15---------------------------------------------------------------
--14b16vvvv--14b16vvvv--14-12----12-------------------------------------------
------------------------------14----14-14-------------------------------------
------------------------------------------------------------------------------
------------------------------------------------------------------------------

Hoče bit na višku, hoče bit povsod.
Vedno polna sebe, z lahkoto vse pohod.
Mimiko z lica prenesla je na bok.
Nasmeh za pest drobiža pobrala od otrok.                                       

Le zakaj, le zakaj, le zakaj, le zakaj, le zakaj ne morem več od tebe nazaj?!?
Le zakaj, le zakaj, le zakaj, le zakaj, le zakaj ne morem več od tebe nazaj?!?

------------------------------------------------------------------------------
------------------------------------------------------------------------------
------------------------------------------------------------------------------
--2----------------------7-5-9------------7---------7-5-----2-----------------
--2----------------------7-5-9------------7---------7-5-----2-----------------
--0----------------------5-3-7------------5---------5-3-----0-----------------
  Mala mala mala nimfomanka, mala mala, mala premetanka.
  Mala mala mala nimfomanka, dober ve, da je nč' ne manjka.
      
------------------------------------------------------------------------------
--15---------15---------------------------------------------------------------
--14b16vvvv--14b16vvvv--14-12----12-------------------------------------------
------------------------------14----14----------------------------------------
------------------------------------------------------------------------------
------------------------------------------------------------------------------

Lepo se vede lepo se obnaša.

V šolo hod', kretenov ne prenaša.
--15-b-17----
-----(Tukaj je tako lepo počasen bend...)
-------------
-------------
-------------
-------------

Zadeve se ponavljajo, tukaj je še malo tistega zaključka, kjer je pač neko
igranje oz soliranje v E-ju s spremljavo refrena...
             

------------------------------------------------------------------------------
--15-----------------------------------------15-------------------------------
--14b16vvv--14-12----12-14-12----------12-14-14b16vvv--14h12----12p14h12------
------------------14----------14---/14-----------------------14----------14---
------------------------------------------------------------------------------
------------------------------------------------------------------------------
                                                                              

-------------------5-5------5-5-------7-7-------7-7---------------------------
-------------------5-5------5-5-------7-7-------7-7------------15----15b17----
--12-----------7b9------7b9------9b11------9b11-------14h16p14----14----------
-----14-14-14-----------------------------------------------------------------
------------------------------------------------------------------------------
------------------------------------------------------------------------------
                Le zakaj, le zakaj...                                       

------------------------------------------------------------------------------
-15-------------------15----15b17---------------------------------------------
----16-14----14h16p14----14---------------------------------------------------
------------------------------------------------------------------------------
------------------------------------------------------------------------------
------------------------------------------------------------------------------
                                                                        
                                                                                 

trzalica bartrzalica bar

Pesem je naložil

FGL

Deli z drugimi

Vaš e-naslov ne bo objavljen. * označuje zahtevana polja