Kje imaš kitaro in trzalico? Besedilo in akordi so spodaj :-)

[[ DISCLAIMER ]]

 ___________________________________________________________
|  _______________________________________________________  |
| |                                                       | |
| | IZVAJALEC: .............. Bort Ross                   | |
| | PESEM: .................. Moja jutra                  | |
| | ALBUM: .................. Sančo Pansa                 | |
| | LETO IZIDA: ............. 2015                        | |
| |_______________________________________________________| |
| |                                                       | |
| |     Transkripcija: chipipi & AliAs / oktober, 2015    | |
| |                                                       | |
| |            w w w . t r z a l i c a . c o m            | |
| |_______________________________________________________| |
|___________________________________________________________|
============================================================================================================
www.trzalica.com       www.trzalica.com       www.trzalica.com       www.trzalica.com       www.trzalica.com
============================================================================================================
Uvod:
    F  Am
Klavir na kitari
e|-0-3-5----3h5-3-----------------------------------------|
H|----------------5-3-5---1---1----------1----------1-----|
G|--------------------------2----2---0-2---2----0-2---2---|
D|--------------------------------------------------------|
A|--------------------------------------------------------|
E|--------------------------------------------------------|
    F  Dm  Am
                                                                                             Trzalica.COM
    F
    Dobro jutro tiha polja,
     Am
    mak prekriva vam obraz.
    F
    Ali čutite korake,
          Am
    ki ne rinejo se v čas?
    F
    Dobro jutro rjavolaska,
         Am
    ali slišiš kdaj moj glas?
    F
    Ko voziš se po mestu,
           Am
    tam si ti, a tu sem jaz.
                                                                                             Trzalica.COM
    F                  Dm
    Le drobtini sva v vetru,
                 Am
    mali piki na planetu, 
    tihi ptici v preletu
            F
    čudnega neba,
             Dm
    čudnega neba,
              Am
    čudnega neba.
            F
    Čudnega neba,
            Dm
    čudnega neba,
            Am
    čudnega neba.
                                                                                             Trzalica.COM
    F  Am
e|-0-3-5----3h5-3-----------------------------------------|
H|----------------5-3-5---1---1----------1----------1-----|
G|--------------------------2----2---0-2---2----0-2---2---|
D|--------------------------------------------------------|
A|--------------------------------------------------------|
E|--------------------------------------------------------|
    Siva lisa pod kuliso v mladem jutru,
    nori svet zamišljen je v čas.
    Jaz pa žejen sem le tebe,
    ti pomiriš moj obraz.
    Le na videz se poznava,
    vsa milina je med nama .
    Tiha polja, moja jutra, 
    pa me ne pustijo, da odšel bi tja
    tam zame ni neba.
                                                                                             Trzalica.COM
    F Am
    aah ah ...
    Le drobtini sva v vetru,
    mali piki na planetu, 
    tihi ptici v preletu,
    čudnega neba,
    čudnega neba,
    čudnega neba.
    Čudnega neba,
    čudnega neba,
    čudnega neba.
                                                                                             Trzalica.COM
e|-0-3-5----3h5-3-----------------------------------------|
H|----------------5-3-5---1---1----------1----------1-----|
G|--------------------------2----2---0-2---2----0-2---2---|
D|--------------------------------------------------------|
A|--------------------------------------------------------|
E|--------------------------------------------------------|

trzalica bar

trzalica bar

Pesem je naložil

chipipi

Deli z drugimi

Vaš e-naslov ne bo objavljen. * označuje zahtevana polja