Kje imaš kitaro in trzalico? Besedilo in akordi so spodaj :-)

[[ DISCLAIMER ]]

Naslov:.........TANZ MIT UNS
Izvajalec:......Slon in Sadež
Album:..........Komercialne pizde (2004)
Transkripcija:..shemshi (www.trzalica.com)

Uvod: 

E-------------------------------|-------------------------------|
B--0-0-1-3-3-1-0---------0-0----|-0-0-1-3-3-1-0---------0-------|
G----------------2-0-0-2-----2-2|---------------2-0-0-2---2-0-0-|
D-------------------------------|-------------------------------|
A-------------------------------|-------------------------------|
E-------------------------------|-------------------------------|

E-----------------------------------|--------------------------------|
B-----0-----0-1-0-----0-1-0---------|-0-0-1-3-3-1-0---------0--------|
G-2-2---0-2-------0-2-------2-0-2---|---------------2-0-0-2---2-0-0--|
D---------------------------------0-|--------------------------------|
A-----------------------------------|--------------------------------|
E-----------------------------------|--------------------------------|

4x
E----------------------------|---
B----------------------------|---
G-----------0------0------0--|---
D-------0-2----0-2----0-2----|---
A----------------------------|---
E--0-0-----------------------|-0- 

E
Wir sind ein Kvartet und wir sind komercial E-0----------------|
                                            B---3-2-0------2-0-|
                                            G----------2-2-----|
                                            D------------------|
                                            A------------------|
                                            E------------------|

E
Wir spielen polka, techno, rap, schlager und metal E-0----------------|
                                                   B---3-2-0------2-0-|
                                                   G----------2-2-----|
                                                   D------------------|
                                                   A------------------|
                                                   E------------------|

E
Wir sind die Kommercialste auf dem ganzen Welt E--------------------|
                                               B--------------------|
                                               G-----1-4--2-1-------|
                                               D-2-4----------4-2-2-|
                                               A--------------------|
                                               E--------------------|

E
Wir spielen gerne alles weil wir lieben Geld E-0----------------|
                                             B---3-2-0------2-0-|
                                             G----------2-2-----|
                                             D------------------|
                                             A------------------|
                                             E------------------|

Refren: 2x
F# 
Vergist das dich niemmand liebt und der Welt ist grobst
E
Tanz mit dem Elefant, tanz mit dem Obst

Ja!

2x
E-----------------------------|
B-----------------------------|
G----0-2---0-3-2----0-2--0----|
D--2-----2--------2--------2--|
A-----------------------------|
E-----------------------------|

E
Wir sind die Alternative für verkaufen E-0----------------|
                                       B---3-2-0------2-0-|
                                       G----------2-2-----|
                                       D------------------|
                                       A------------------|
                                       E------------------|

E
Wenn das dich stohert kanst do mein Schwanc rauchen E-0----------------|
                                                    B---3-2-0------2-0-|
                                                    G----------2-2-----|
                                                    D------------------|
                                                    A------------------|
                                                    E------------------|

E
Wo du die CD kaufen das ist klar: E-0----------------|
                                  B---3-2-0------2-0-|
                                  G----------2-2-----|
                                  D------------------|
                                  A------------------|
                                  E------------------|

E
In Merkator, Big Bang, Müller und Interspar  E----------------------------0--|
                                             B--------------------------4----|
                                             G-------------------------------|
                                             D----2-2-1-1---1----------------|
                                             A--2---------4----2-1-2-3-2-----|
                                             E-------------------------------|

Refren: 2x
F# 
Vergist das dich niemmand liebt und der Welt ist grobst
E
Tanz mit dem Elefant, tanz mit dem Obst

Ja!

E
Tanz mit uns...

 

Pesem je naložil

shemshi

Deli z drugimi

Vaš e-naslov ne bo objavljen. * označuje zahtevana polja

VIDEO za igranje ob kitari

Please Add Widget from here