Kje imaš kitaro in trzalico? Besedilo in akordi so spodaj :-)

[[ DISCLAIMER ]]

   ___________________________________________________________
  |  _______________________________________________________  |
  | |                                                       | |
  | | IZVAJALEC: .............. Tabu                        | |
  | | PESEM: .................. V soju luči                 | |
  | | ALBUM: .................. Lun(lagun)                  | |
  | | LETO IZIDA: ............. 2004                        | |
  | | DOMAČA STRAN: ........... www.t-a-b-u.com             | |
  | |_______________________________________________________| |
  | |                                                       | |
  | |   Avtor transkripcije: AliAs                          | |
  | |   Domača stran transkripcije: www.trzalica.com        | |
  | |   Datum nastanka transkripcije: 7.12.2007             | |
  | |_______________________________________________________| |
  |___________________________________________________________|

================================================================================================

br = bend up za cel ton nato popusti bend

================================================================================================
www.trzalica.com    www.trzalica.com    www.trzalica.com    www.trzalica.com    www.trzalica.com
================================================================================================

INTRO:

         Hm           D       G    D   A          Hm           D       G    D   A
e|------------------------------------------------------------------------------------|
B|------------------------------------------------------------------------------------|
G|------------------------------------------------------------------------------------|
D|------------------------------------------------------------------------------7-----|
A|-7br-5------5-7-5-7-9---7-9-10---9---7----7br-5------5-7-5-7-9---7-9-10---9---------|
E|-------7----------------------------------------7-----------------------------------|

VERZ:
             Hm           D
Mlada divja kri in lep obraz
           G      D     Em
ta lepota dolgih črnih las
                Hm         D
v očeh pogledi skrivajo zavist
          Em   D    A
se odloči da obrne list
          Hm           D
Ona hoče več pohlepna vsa
              G     D  Em
in priložnost je ponujena
                 Hm         D
prav za nič na svetu ni ji mar
             Em     D    A
zdaj v igri gre ji za denar

    G        D
V najem življenje
    G         D
vse svoje želje
    G          D                       A
niti usode drugim dala je v roke

REFREN:
Hm  D           G
uuuuu V soju luči
 D          A
se ne vidijo pasti
Hm  D           G
uuuuu v soju luči
 D             A
blišč zakrije vse laži
Hm  D           G
uuuuu v soju luči
 D          A
čaka pekel ali raj
Hm  D           G
uuuuu v soju luči
 D          A
zdaj ni več poti nazaj

         Hm           D       G    D   A          Hm           D       G    D   A
e|------------------------------------------------------------------------------------|
B|------------------------------------------------------------------------------------|
G|------------------------------------------------------------------------------------|
D|------------------------------------------------------------------------------7-----|
A|-7br-5------5-7-5-7-9---7-9-10---9---7----7br-5------5-7-5-7-9---7-9-10---9---------|
E|-------7----------------------------------------7-----------------------------------|

VERZ:
           Hm                D
Mine zdaj vse zguban njen obraz
             G       D     Em
je minljivosti prav lep dokaz
             Hm          D
blede slike  in naslovnice
            Em   D    A
ostanejo pozabi se ime

    G        D
V najem življenje
    G         D
vse svoje želje
    G          D                       A
niti usode drugim dala je v roke

REFREN:
Hm  D           G
uuuuu V soju luči
 D          A
se ne vidijo pasti
Hm  D           G
uuuuu v soju luči
 D             A
blišč zakrije vse laži
Hm  D           G
uuuuu v soju luči
 D          A
čaka pekel ali raj
Hm  D           G
uuuuu v soju luči
 D          A
zdaj ni več poti nazaj

BRIDGE in SOLO:

Em F#m G
Em F#m A

Solo:  Hm  D  G  D  A

REFREN:
Hm  D           G
uuuuu V soju luči
 D          A
se ne vidijo pasti
Hm  D           G
uuuuu v soju luči
 D             A
blišč zakrije vse laži
Hm  D           G
uuuuu v soju luči
 D          A
čaka pekel ali raj
Hm  D           G
uuuuu v soju luči
 D          A
zdaj ni več poti nazaj

#==============================================================================#
#                                                                              #
#                    w w w . t r z a l i c a . c o m                           #
#               K j e r   i m a m o   r a d i   g l a s b o                    #
#                                                                              #
#==============================================================================#
trzalica bartrzalica bar

Pesem je naložil

AliAs

Deli z drugimi

Vaš e-naslov ne bo objavljen. * označuje zahtevana polja