Kje imaš kitaro in trzalico? Besedilo in akordi so spodaj :-)

[[ DISCLAIMER ]]

Besedila in akordi na TrzaliciOglej si še: besedilo z akordi  Zdravljica
  Zdravljica (gp)
  Zdravljica (note)
besedilo z akordi  Lačni Franz - Zdravljica

trzalica bar

Stanko Premrl / France Prešeren - Zdravljica

E|-------------|------------------------------|---------------------------|-------------|
B|-------------|------------------------------|---------------------------|-------------|
G|-------------|-5----5-----------------------|---------------------------|-------------|
D|--------5----|---------9---9---7----9---9---|-5----5--7---7-------------|-5------5----|
A|-------------|------------------------------|-----------------7----8----|-------------|
E|-------------|------------------------------|---------------------------|-------------|

E|---------------------|---------------------|------------------------------|-------------|
B|----------------5----|-5-------------------|------------------------------|-------------|
G|-5-----5---7---------|------7----5---------|-----------------7----5-------|-------------|
D|---------------------|----------------9----|-9---7---6---7------------7---|-5-----------|
A|---------------------|---------------------|------------------------------|-------------|
E|---------------------|---------------------|------------------------------|-------------|

E|-----------------|---------------------|---------------------|---------------------|
B|-----------------|---------------------|---------------------|---------------------|
G|-----------------|-----------5-----5---|---------------------|---------------------|
D|-5----7----------|------5--------------|-9-----9---7----7----|-5---------5---------|
A|-----------8-----|-7-------------------|---------------------|------9--------------|
E|-----------------|---------------------|---------------------|---------------------|

E|-----------------|---------------------|---------------------|-----------------|
B|-----------------|---------------------|---------------------|-----------------|
G|-----------------|-----------5-----5---|-5----5----5----5----|-5---------------|
D|-5----7----------|------5--------------|---------------------|-------9----7----|
A|-----------8-----|-7-------------------|---------------------|-----------------|
E|-----------------|---------------------|---------------------|-----------------|

E|---------------------------|-------------|
B|-----6---5-------8---------|-------------|
G|-------------7-------------|-5-----------|
D|-5--------------------9----|-------------|
A|---------------------------|-------------|
E|---------------------------|-------------|

 

trzalica bar

trzalica bar

Pesem je naložil

neznan avtor

Deli z drugimi

Vaš e-naslov ne bo objavljen. * označuje zahtevana polja