Kje imaš kitaro in trzalico? Besedilo in akordi so spodaj :-)

[[ DISCLAIMER ]]

Besedila in akordi na TrzaliciOstale verzije te pesmi:  Bit (akordi)   Bit (tab)   

Bit by Zmelkoow
Tabbed by chargerbandit
Tabbed 27.7.2013

It's jam time!

This song is tuned HALF STEP DOWN!

(/) Slide Up  () Slide Down  (h) Hammer On  (p) Pull Off

(b) Bend (r) Release (v) Vibrato (l) Let ring

intro
G|------------------------------------------
D|-----------------2l-----------------------
A|-2-2-2l--0-2-0-2------2-2-2l--0-2-0-2-0l--
E|------------------------------------------

G|--------------------------------------
D|--------------------------------------
A|-2-2-2l--0-2-0-2-0l--------0-2-0-2-0l-
E|---------------------3-3-3------------

verse1
G|--------------------------------------
D|----------------5-5-------------------
A|-0h5l--0h5l--66---------5l-8-5--------
E|--------------------6l---------8-5l---

prechorus - "smisel življenja..."
G|-----------------------------------
D|---------7l------------------------
A|-2l--7l------5-5l-0-0l-------------
E|-----------------------------------

chorus
G|--------------------------------------------------
D|--------------------------------------------------
A|-22-44-5-4-22----------22-00-22-4-2-00--0h5-0-4-0-
E|--------------00-22-44----------------------------

verse2 -"o bit..."
G|-----------------------------------
D|----------3--------------3---------
A|-5555-3-5---5-3-5555-3-5---5-3-----
E|-----------------------------------

G|-----------------------------------
D|----5-5----------------------------
A|-66---------5l--8-5----------------
E|---------6l---------8-5l-----------

Thats it!

 

Pesem je naložil

chargerbandit

Deli z drugimi

Vaš e-naslov ne bo objavljen. * označuje zahtevana polja

VIDEO za igranje ob kitari

Please Add Widget from here