Kje imaš kitaro in trzalico? Besedilo in akordi so spodaj :-)

[[ DISCLAIMER ]]

 _______________________________________
|                                       |
| IZVAJALEC: ........... Srečna mladina |
| PESEM: ................ Humus sapiens |
| ALBUM: ..... Listen to Srečna mladina |
|_______________________________________|
|                                       |
|   Tablatura                           |
|   Transkripcija: AliAs                |
|   Domača stran: Trzalica.com          |
|_______________________________________|
LEGENDA:
 M = MUTE - zaduši strune
 × = palm muted - narahlo zaduši strune
 X = Z levo roko zaduši struno
 ~ = let ring - strune pusti zveneti
...= nadaljevanje pickinga
 p = pul off
 h = hold on
 \ = slide down
e|---------------------------------|
H|---------------------------------|
G|---------------------------------|  --4x
D|---------------------------------|
A|-------------1-1-1-0-0-0---------|
E|-0-0-0-3-3-3-------------1-1-4-4-|
e|---------------------------------|
H|---------------------------------|
G|---------------------------------|  --4x
D|---------------------------------|
A|-2-2-2-5-5-5-8-8-8-7-7-7-3-3-6-6-|
E|-0-0-0-3-3-3-6-6-6-5-5-5-1-1-4-4-|
e|------------------------|
B|------------------------|
G|-------9------9-\-------|
D|-------9------9-\-------|
A|-------7------7-\-------|
E|------------------------|
          ~~~~~~ 
e|-----------------------------------------------------------|
H|-----------------------------------------------------------|
G|-----------------------------------------------------------| <- z wah-wah efektom (clean)
D|-----------------------------------------------------------|
A|-----------------------------------------------------------|
E|-0-0-0-0-0-0-0-0-0-0-0-0-0-...............................-|
Smo v situaciji ko rešitve več ni.....                   
e|---------------------------------|
H|---------------------------------|
G|---------------------------------|  --4x
D|---------------------------------|
A|-------------1-1-1-0-0-0---------|
E|-0-0-0-3-3-3-------------1-1-4-4-|
e|-X-X-X-X-|
H|-X-X-X-X-|
G|-X-X-X-X-|
D|-X-X-X-X-|
A|-X-X-X-X-|
E|-X-X-X-X-|
e|---------------------------------|
H|---------------------------------|
G|---------------------------------|  --3x
D|---------------------------------|
A|-2-2-2-5-5-5-8-8-8-7-7-7-3-3-6-6-|
E|-0-0-0-3-3-3-6-6-6-5-5-5-1-1-4-4-|
e|---------------------------------|
H|---------------------------------|
G|-0--0--0--0--0--0--0--0--0--0--0-|
D|-0--0--0--0--0--0--0--0--0--0--0-|
A|-0--0--0--0--0--0--0--0--0--0--0-|
E|-0--0--0--0--0--0--0--0--0--0--0-|
   E5                        F5                        G5                          A5                 F5
e|--------------------------------------------------------------------------------------------------------|
H|--------------------------------------------------------------------------------------------------------|
G|-9-9-9-9------9-9-9-9------10101010-----10101010-----12121212------12121212------14141414------14---10--|
D|-9-9-9-9------9-9-9-9------10101010-----10101010-----12121212------12121212------14141414------14---10--|
A|-7-7-7-7------7-7-7-7------8-8-8-8------8-8-8-8------10101010------10101010------12121212------12---8---|
E|-7-7-7-7------7-7-7-7------8-8-8-8------8-8-8-8------10101010------10101010------12121212------12---8---|
           M            M            M            M             M             M             M
   E5                        F5                        G5                          A5                 F5
e|--------------------------------------------------------------------------------------------------------|
H|--------------------------------------------------------------------------------------------------------|
G|-9-9-9-9------9-9-9-9------10101010-----10101010-----12121212------12121212------14141414------14---10--|
D|-9-9-9-9--X-X-9-9-9-9--X-X-10101010-X-X-10101010-X-X-12121212--X-X-12121212--X-X-14141414--X-X-14---10--|
A|-7-7-7-7--X-X-7-7-7-7--X-X-8-8-8-8--X-X-8-8-8-8--X-X-10101010--X-X-10101010--X-X-12121212--X-X-12---8---|
E|-7-7-7-7--X-X-7-7-7-7--X-X-8-8-8-8--X-X-8-8-8-8--X-X-10101010--X-X-10101010--X-X-12121212--X-X-12---8---|
           M            M            M            M             M             M             M
e|-------------------------------------|
H|-------------------------------------|
G|-------------------------------------|
D|-------------------------------------|
A|-X--XXXX-X-X-X-X-X-X-X-X-X-----------|
E|-X--XXXX-X-X-X-X-X-X-X-X-X-0-8--8----|
                                      M
bo bo bo bo bo (pa) bo bo (pa) bo bo bo ..........
e|---------|
H|---------|
G|---------|
D|---------|
A|-X-X-X-X-|
E|-X-X-X-X-|
bo bo bo bo bo (pa) bo bo (pa) bo bo bo ..........
e|--------------------------------------------------------|
H|--------------------------------------------------------|
G|-9---8--------------------------------------------------|  --4x
D|---------10-12---11---7-10---9---5-8--7h8p7h8p7h8p7h8p7-|
A|--------------------------------------------------------|
E|--------------------------------------------------------|
e|-----------------------------------------------|
H|-----------------------------------------------|
G|-9---8-----------------------------------------|
D|---------10-12---11---7-10---9---5-8--7--------|
A|-----------------------------------------------|
E|-----------------------------------------0--0--|
                                            ×  ×
e|-0----------0----------0----------0-----------|
H|----------------------------------------------|
G|----------------------------------------------|
D|----------------------------------------------|
A|----------------------------------------------|
E|----------------------------------------------|
   ~~~~~~~~~~~ ~~~~~~~~~~ ~~~~~~~~~~ ~~~~~~~~~~~
   E5                        F5                        G5                          A5                 F5
e|--------------------------------------------------------------------------------------------------------|
H|--------------------------------------------------------------------------------------------------------|
G|-9-9-9-9------9-9-9-9------10101010-----10101010-----12121212------12121212------14141414------14---10--|
D|-9-9-9-9------9-9-9-9------10101010-----10101010-----12121212------12121212------14141414------14---10--|
A|-7-7-7-7------7-7-7-7------8-8-8-8------8-8-8-8------10101010------10101010------12121212------12---8---|
E|-7-7-7-7------7-7-7-7------8-8-8-8------8-8-8-8------10101010------10101010------12121212------12---8---|
           M            M            M            M             M             M             M
   E5                        F5                        G5                          A5                 F5
e|--------------------------------------------------------------------------------------------------------|
H|--------------------------------------------------------------------------------------------------------|
G|-9-9-9-9------9-9-9-9------10101010-----10101010-----12121212------12121212------14141414------14---10--|
D|-9-9-9-9--X-X-9-9-9-9--X-X-10101010-X-X-10101010-X-X-12121212--X-X-12121212--X-X-14141414--X-X-14---10--|
A|-7-7-7-7--X-X-7-7-7-7--X-X-8-8-8-8--X-X-8-8-8-8--X-X-10101010--X-X-10101010--X-X-12121212--X-X-12---8---|
E|-7-7-7-7--X-X-7-7-7-7--X-X-8-8-8-8--X-X-8-8-8-8--X-X-10101010--X-X-10101010--X-X-12121212--X-X-12---8---|
           M            M            M            M             M             M             M
  
e|--------------------------------------------------------------------------|
H|--------------------------------------------------------------------------|
G|--------------------------------------------------------------------------|  --2x
D|-9-9-9-9----------3-3-3-3----------5-5-5-5----------7-7-7-7---7-7-7-10----|
A|-7-7-7-7------------------------------------------------------------------|
E|-0-0-0-0----------1-1-1-1----------3-3-3-3----------5-5-5-5---5-5-5-8-----|
          ~~~~~~~~~~       ~~~~~~~~~~       ~~~~~~~~~~
e|-0----------0----------|
H|-----------------------|
G|-----------------------|
D|-----------------------|
A|-----------------------|
E|-----------------------|
   ~~~~~~~~~~~ ~~~~~~~~~~
e|-------------------------------------------|
H|-------------------------------------------|
G|-------------------------------------------| <- picking na 6. struni od 0 do 12.
D|-------------------------------------------|
A|-------------------------------------------|
E|-0--1--2--3--4--5--6--7--8--9--10--11--12--|

trzalica bartrzalica bar

Pesem je naložil

AliAs

Deli z drugimi

Vaš e-naslov ne bo objavljen. * označuje zahtevana polja